  0
SECTION
  2
HEADER
  9
$ACADVER
  1
AC1018
  9
$ACADMAINTVER
 70
     0
  9
$DWGCODEPAGE
  3
ASCII
  9
$INSBASE
 10
0.0
 20
0.0
 30
0.0
  9
$EXTMIN
 10
1.000000000000000E+20
 20
1.000000000000000E+20
 30
1.000000000000000E+20
  9
$EXTMAX
 10
-1.000000000000000E+20
 20
-1.000000000000000E+20
 30
-1.000000000000000E+20
  9
$LIMMIN
 10
0.0
 20
0.0
  9
$LIMMAX
 10
12.0
 20
9.0
  9
$ORTHOMODE
 70
     0
  9
$REGENMODE
 70
     1
  9
$FILLMODE
 70
     1
  9
$QTEXTMODE
 70
     0
  9
$MIRRTEXT
 70
     1
  9
$LTSCALE
 40
1.0
  9
$ATTMODE
 70
     1
  9
$TEXTSIZE
 40
0.2
  9
$TRACEWID
 40
0.05
  9
$TEXTSTYLE
  7
Standard
  9
$CLAYER
  8
0
  9
$CELTYPE
  6
ByLayer
  9
$CECOLOR
 62
   256
  9
$CELTSCALE
 40
1.0
  9
$DISPSILH
 70
     0
  9
$DIMSCALE
 40
1.0
  9
$DIMASZ
 40
0.18
  9
$DIMEXO
 40
0.0625
  9
$DIMDLI
 40
0.38
  9
$DIMRND
 40
0.0
  9
$DIMDLE
 40
0.0
  9
$DIMEXE
 40
0.18
  9
$DIMTP
 40
0.0
  9
$DIMTM
 40
0.0
  9
$DIMTXT
 40
0.18
  9
$DIMCEN
 40
0.09
  9
$DIMTSZ
 40
0.0
  9
$DIMTOL
 70
     0
  9
$DIMLIM
 70
     0
  9
$DIMTIH
 70
     1
  9
$DIMTOH
 70
     1
  9
$DIMSE1
 70
     0
  9
$DIMSE2
 70
     0
  9
$DIMTAD
 70
     0
  9
$DIMZIN
 70
     0
  9
$DIMBLK
  1

  9
$DIMASO
 70
     1
  9
$DIMSHO
 70
     1
  9
$DIMPOST
  1

  9
$DIMAPOST
  1

  9
$DIMALT
 70
     0
  9
$DIMALTD
 70
     2
  9
$DIMALTF
 40
25.4
  9
$DIMLFAC
 40
1.0
  9
$DIMTOFL
 70
     0
  9
$DIMTVP
 40
0.0
  9
$DIMTIX
 70
     0
  9
$DIMSOXD
 70
     0
  9
$DIMSAH
 70
     0
  9
$DIMBLK1
  1

  9
$DIMBLK2
  1

  9
$DIMSTYLE
  2
Standard
  9
$DIMCLRD
 70
     0
  9
$DIMCLRE
 70
     0
  9
$DIMCLRT
 70
     0
  9
$DIMTFAC
 40
1.0
  9
$DIMGAP
 40
0.09
  9
$DIMJUST
 70
     0
  9
$DIMSD1
 70
     0
  9
$DIMSD2
 70
     0
  9
$DIMTOLJ
 70
     1
  9
$DIMTZIN
 70
     0
  9
$DIMALTZ
 70
     0
  9
$DIMALTTZ
 70
     0
  9
$DIMUPT
 70
     0
  9
$DIMDEC
 70
     4
  9
$DIMTDEC
 70
     4
  9
$DIMALTU
 70
     2
  9
$DIMALTTD
 70
     2
  9
$DIMTXSTY
  7
Standard
  9
$DIMAUNIT
 70
     0
  9
$DIMADEC
 70
     0
  9
$DIMALTRND
 40
0.0
  9
$DIMAZIN
 70
     0
  9
$DIMDSEP
 70
    46
  9
$DIMATFIT
 70
     3
  9
$DIMFRAC
 70
     0
  9
$DIMLDRBLK
  1

  9
$DIMLUNIT
 70
     2
  9
$DIMLWD
 70
    -2
  9
$DIMLWE
 70
    -2
  9
$DIMTMOVE
 70
     0
  9
$LUNITS
 70
     2
  9
$LUPREC
 70
     4
  9
$SKETCHINC
 40
0.1
  9
$FILLETRAD
 40
0.5
  9
$AUNITS
 70
     0
  9
$AUPREC
 70
     0
  9
$MENU
  1
.
  9
$ELEVATION
 40
0.0
  9
$PELEVATION
 40
0.0
  9
$THICKNESS
 40
0.0
  9
$LIMCHECK
 70
     0
  9
$CHAMFERA
 40
0.5
  9
$CHAMFERB
 40
0.5
  9
$CHAMFERC
 40
1.0
  9
$CHAMFERD
 40
0.0
  9
$SKPOLY
 70
     0
  9
$TDCREATE
 40
2457041.761751412
  9
$TDUCREATE
 40
2457041.720084745
  9
$TDUPDATE
 40
2457041.761751424
  9
$TDUUPDATE
 40
2457041.720084757
  9
$TDINDWG
 40
0.0000000116
  9
$TDUSRTIMER
 40
0.0000000116
  9
$USRTIMER
 70
     1
  9
$ANGBASE
 50
0.0
  9
$ANGDIR
 70
     0
  9
$PDMODE
 70
     0
  9
$PDSIZE
 40
0.0
  9
$PLINEWID
 40
0.0
  9
$SPLFRAME
 70
     0
  9
$SPLINETYPE
 70
     6
  9
$SPLINESEGS
 70
     8
  9
$HANDSEED
  5
435
  9
$SURFTAB1
 70
     6
  9
$SURFTAB2
 70
     6
  9
$SURFTYPE
 70
     6
  9
$SURFU
 70
     6
  9
$SURFV
 70
     6
  9
$UCSBASE
  2

  9
$UCSNAME
  2

  9
$UCSORG
 10
0.0
 20
0.0
 30
0.0
  9
$UCSXDIR
 10
1.0
 20
0.0
 30
0.0
  9
$UCSYDIR
 10
0.0
 20
1.0
 30
0.0
  9
$UCSORTHOREF
  2

  9
$UCSORTHOVIEW
 70
     0
  9
$UCSORGTOP
 10
0.0
 20
0.0
 30
0.0
  9
$UCSORGBOTTOM
 10
0.0
 20
0.0
 30
0.0
  9
$UCSORGLEFT
 10
0.0
 20
0.0
 30
0.0
  9
$UCSORGRIGHT
 10
0.0
 20
0.0
 30
0.0
  9
$UCSORGFRONT
 10
0.0
 20
0.0
 30
0.0
  9
$UCSORGBACK
 10
0.0
 20
0.0
 30
0.0
  9
$PUCSBASE
  2

  9
$PUCSNAME
  2

  9
$PUCSORG
 10
0.0
 20
0.0
 30
0.0
  9
$PUCSXDIR
 10
1.0
 20
0.0
 30
0.0
  9
$PUCSYDIR
 10
0.0
 20
1.0
 30
0.0
  9
$PUCSORTHOREF
  2

  9
$PUCSORTHOVIEW
 70
     0
  9
$PUCSORGTOP
 10
0.0
 20
0.0
 30
0.0
  9
$PUCSORGBOTTOM
 10
0.0
 20
0.0
 30
0.0
  9
$PUCSORGLEFT
 10
0.0
 20
0.0
 30
0.0
  9
$PUCSORGRIGHT
 10
0.0
 20
0.0
 30
0.0
  9
$PUCSORGFRONT
 10
0.0
 20
0.0
 30
0.0
  9
$PUCSORGBACK
 10
0.0
 20
0.0
 30
0.0
  9
$USERI1
 70
     0
  9
$USERI2
 70
     0
  9
$USERI3
 70
     0
  9
$USERI4
 70
     0
  9
$USERI5
 70
     0
  9
$USERR1
 40
0.0
  9
$USERR2
 40
0.0
  9
$USERR3
 40
0.0
  9
$USERR4
 40
0.0
  9
$USERR5
 40
0.0
  9
$WORLDVIEW
 70
     1
  9
$SHADEDGE
 70
     3
  9
$SHADEDIF
 70
    70
  9
$TILEMODE
 70
     1
  9
$MAXACTVP
 70
    64
  9
$PINSBASE
 10
0.0
 20
0.0
 30
0.0
  9
$PLIMCHECK
 70
     0
  9
$PEXTMIN
 10
1.000000000000000E+20
 20
1.000000000000000E+20
 30
1.000000000000000E+20
  9
$PEXTMAX
 10
-1.000000000000000E+20
 20
-1.000000000000000E+20
 30
-1.000000000000000E+20
  9
$PLIMMIN
 10
0.0
 20
0.0
  9
$PLIMMAX
 10
12.0
 20
9.0
  9
$UNITMODE
 70
     0
  9
$VISRETAIN
 70
     1
  9
$PLINEGEN
 70
     0
  9
$PSLTSCALE
 70
     1
  9
$TREEDEPTH
 70
  3020
  9
$CMLSTYLE
  2
Standard
  9
$CMLJUST
 70
     0
  9
$CMLSCALE
 40
1.0
  9
$PROXYGRAPHICS
 70
     1
  9
$MEASUREMENT
 70
     0
  9
$CELWEIGHT
370
    -1
  9
$ENDCAPS
280
     0
  9
$JOINSTYLE
280
     0
  9
$LWDISPLAY
290
     1
  9
$INSUNITS
 70
     1
  9
$HYPERLINKBASE
  1

  9
$STYLESHEET
  1

  9
$XEDIT
290
     1
  9
$CEPSNTYPE
380
     0
  9
$PSTYLEMODE
290
     1
  9
$FINGERPRINTGUID
  2
{73873E9C-00A8-4C35-9712-EE4C47AB46AC}
  9
$VERSIONGUID
  2
{FAEB1C32-E019-11D5-929B-00C0DF256EC4}
  9
$EXTNAMES
290
     1
  9
$PSVPSCALE
 40
0.0
  9
$OLESTARTUP
290
     0
  9
$SORTENTS
280
   127
  9
$INDEXCTL
280
     0
  9
$HIDETEXT
280
     1
  9
$XCLIPFRAME
290
     0
  9
$HALOGAP
280
     0
  9
$OBSCOLOR
 70
   257
  9
$OBSLTYPE
280
     0
  9
$INTERSECTIONDISPLAY
280
     0
  9
$INTERSECTIONCOLOR
 70
   257
  9
$DIMASSOC
280
     2
  9
$PROJECTNAME
  1

  0
ENDSEC
  0
SECTION
  2
CLASSES
  0
CLASS
  1
ACDBDICTIONARYWDFLT
  2
AcDbDictionaryWithDefault
  3
ObjectDBX Classes
 90
        0
 91
        3
280
     0
281
     0
  0
CLASS
  1
VISUALSTYLE
  2
AcDbVisualStyle
  3
ObjectDBX Classes
 90
     4095
 91
        3
280
     0
281
     0
  0
ENDSEC
  0
SECTION
  2
TABLES
  0
TABLE
  2
VPORT
  5
8
330
0
100
AcDbSymbolTable
 70
     1
  0
VPORT
  5
29
330
8
100
AcDbSymbolTableRecord
100
AcDbViewportTableRecord
  2
*Active
 70
     0
 10
0.0
 20
0.0
 11
1.0
 21
1.0
 12
0.0
 22
0.0
 13
0.0
 23
0.0
 14
0.5
 24
0.5
 15
0.5
 25
0.5
 16
0.0
 26
0.0
 36
1.0
 17
105.0008952513716
 27
105.0008952513716
 37
0.0
 40
199.9999826918289
 41
1.0
 42
50.0
 43
0.0
 44
0.0
 50
0.0
 51
0.0
 71
     0
 72
   100
 73
     1
 74
     3
 75
     0
 76
     0
 77
     0
 78
     0
281
     0
 65
     1
110
0.0
120
0.0
130
0.0
111
1.0
121
0.0
131
0.0
112
0.0
122
1.0
132
0.0
 79
     0
146
0.0
  0
ENDTAB
  0
TABLE
  2
LTYPE
  5
5
330
0
100
AcDbSymbolTable
 70
     1
  0
LTYPE
  5
14
330
5
100
AcDbSymbolTableRecord
100
AcDbLinetypeTableRecord
  2
ByBlock
 70
     0
  3

 72
    65
 73
     0
 40
0.0
  0
LTYPE
  5
15
330
5
100
AcDbSymbolTableRecord
100
AcDbLinetypeTableRecord
  2
ByLayer
 70
     0
  3

 72
    65
 73
     0
 40
0.0
  0
LTYPE
  5
16
330
5
100
AcDbSymbolTableRecord
100
AcDbLinetypeTableRecord
  2
Continuous
 70
     0
  3
Solid line
 72
    65
 73
     0
 40
0.0
  0
ENDTAB
  0
TABLE
  2
LAYER
  5
2
330
0
100
AcDbSymbolTable
 70
     2
  0
LAYER
  5
10
330
2
100
AcDbSymbolTableRecord
100
AcDbLayerTableRecord
  2
0
 70
     0
 62
     7
  6
Continuous
370
    -3
390
F
  0
LAYER
  5
3B
330
2
100
AcDbSymbolTableRecord
100
AcDbLayerTableRecord
  2
Ebene 2
 70
     0
 62
     7
  6
Continuous
370
    -3
390
F
  0
ENDTAB
  0
TABLE
  2
STYLE
  5
3
330
0
100
AcDbSymbolTable
 70
     1
  0
STYLE
  5
11
330
3
100
AcDbSymbolTableRecord
100
AcDbTextStyleTableRecord
  2
Standard
 70
     0
 40
0.0
 41
1.0
 50
0.0
 71
     0
 42
0.2
  3
txt
  4

  0
ENDTAB
  0
TABLE
  2
VIEW
  5
6
330
0
100
AcDbSymbolTable
 70
     0
  0
ENDTAB
  0
TABLE
  2
UCS
  5
7
330
0
100
AcDbSymbolTable
 70
     0
  0
ENDTAB
  0
TABLE
  2
APPID
  5
9
330
0
100
AcDbSymbolTable
 70
     1
  0
APPID
  5
12
330
9
100
AcDbSymbolTableRecord
100
AcDbRegAppTableRecord
  2
ACAD
 70
     0
  0
ENDTAB
  0
TABLE
  2
DIMSTYLE
  5
A
330
0
100
AcDbSymbolTable
 70
     1
100
AcDbDimStyleTable
  0
DIMSTYLE
105
27
330
A
100
AcDbSymbolTableRecord
100
AcDbDimStyleTableRecord
  2
Standard
 70
     0
340
11
  0
ENDTAB
  0
TABLE
  2
BLOCK_RECORD
  5
1
330
0
100
AcDbSymbolTable
 70
     1
  0
BLOCK_RECORD
  5
1F
330
1
100
AcDbSymbolTableRecord
100
AcDbBlockTableRecord
  2
*Model_Space
340
22
  0
BLOCK_RECORD
  5
1B
330
1
100
AcDbSymbolTableRecord
100
AcDbBlockTableRecord
  2
*Paper_Space
340
1E
  0
BLOCK_RECORD
  5
23
330
1
100
AcDbSymbolTableRecord
100
AcDbBlockTableRecord
  2
*Paper_Space0
340
26
  0
ENDTAB
  0
ENDSEC
  0
SECTION
  2
BLOCKS
  0
BLOCK
  5
20
330
1F
100
AcDbEntity
  8
0
100
AcDbBlockBegin
  2
*Model_Space
 70
     0
 71
     0
 10
0.0
 20
0.0
 30
0.0
  3
*Model_Space
  1

  0
ENDBLK
  5
21
330
1F
100
AcDbEntity
  8
0
100
AcDbBlockEnd
  0
BLOCK
  5
1C
330
1B
100
AcDbEntity
 67
     1
  8
0
100
AcDbBlockBegin
  2
*Paper_Space
 70
     0
 71
     0
 10
0.0
 20
0.0
 30
0.0
  3
*Paper_Space
  1

  0
ENDBLK
  5
1D
330
1B
100
AcDbEntity
 67
     1
  8
0
100
AcDbBlockEnd
  0
BLOCK
  5
24
330
23
100
AcDbEntity
  8
0
100
AcDbBlockBegin
  2
*Paper_Space0
 70
     0
 71
     0
 10
0.0
 20
0.0
 30
0.0
  3
*Paper_Space0
  1

  0
ENDBLK
  5
25
330
23
100
AcDbEntity
  8
0
100
AcDbBlockEnd
  0
ENDSEC
  0
SECTION
  2
ENTITIES
  0
POLYLINE
  5
3C
330
1F
100
AcDbEntity
  8
Ebene 2
370
     0
100
AcDb2dPolyline
 66
     1
 10
0.0
 20
0.0
 30
0.0
  0
VERTEX
  5
3D
330
3C
100
AcDbEntity
  8
Ebene 2
370
     0
100
AcDbVertex
100
AcDb2dVertex
 10
10.00077428158698
 20
54.20206753578704
 30
0.0
  0
VERTEX
  5
3E
330
3C
100
AcDbEntity
  8
Ebene 2
370
     0
100
AcDbVertex
100
AcDb2dVertex
 10
10.00077428158698
 20
60.91966365403654
 30
0.0
  0
VERTEX
  5
3F
330
3C
100
AcDbEntity
  8
Ebene 2
370
     0
100
AcDbVertex
100
AcDb2dVertex
 10
15.3952806058913
 20
66.31399772345294
 30
0.0
  0
VERTEX
  5
40
330
3C
100
AcDbEntity
  8
Ebene 2
370
     0
100
AcDbVertex
100
AcDb2dVertex
 10
25.35161312640058
 20
56.35800971271946
 30
0.0
  0
VERTEX
  5
41
330
3C
100
AcDbEntity
  8
Ebene 2
370
     0
100
AcDbVertex
100
AcDb2dVertex
 10
35.30794564690986
 20
66.31399772345294
 30
0.0
  0
VERTEX
  5
42
330
3C
100
AcDbEntity
  8
Ebene 2
370
     0
100
AcDbVertex
100
AcDb2dVertex
 10
45.26427816741914
 20
56.35800971271946
 30
0.0
  0
VERTEX
  5
43
330
3C
100
AcDbEntity
  8
Ebene 2
370
     0
100
AcDbVertex
100
AcDb2dVertex
 10
55.22043843304051
 20
66.31399772345294
 30
0.0
  0
VERTEX
  5
44
330
3C
100
AcDbEntity
  8
Ebene 2
370
     0
100
AcDbVertex
100
AcDb2dVertex
 10
65.17677095354979
 20
56.35732069316787
 30
0.0
  0
VERTEX
  5
45
330
3C
100
AcDbEntity
  8
Ebene 2
370
     0
100
AcDbVertex
100
AcDb2dVertex
 10
75.13310347405907
 20
66.31399772345294
 30
0.0
  0
VERTEX
  5
46
330
3C
100
AcDbEntity
  8
Ebene 2
370
     0
100
AcDbVertex
100
AcDb2dVertex
 10
85.08943599456836
 20
56.35732069316787
 30
0.0
  0
VERTEX
  5
47
330
3C
100
AcDbEntity
  8
Ebene 2
370
     0
100
AcDbVertex
100
AcDb2dVertex
 10
95.04576851507764
 20
66.31330870390136
 30
0.0
  0
VERTEX
  5
48
330
3C
100
AcDbEntity
  8
Ebene 2
370
     0
100
AcDbVertex
100
AcDb2dVertex
 10
105.0021010355869
 20
56.35732069316787
 30
0.0
  0
VERTEX
  5
49
330
3C
100
AcDbEntity
  8
Ebene 2
370
     0
100
AcDbVertex
100
AcDb2dVertex
 10
114.9584335560962
 20
66.31330870390136
 30
0.0
  0
VERTEX
  5
4A
330
3C
100
AcDbEntity
  8
Ebene 2
370
     0
100
AcDbVertex
100
AcDb2dVertex
 10
124.9144215668297
 20
56.35732069316787
 30
0.0
  0
VERTEX
  5
4B
330
3C
100
AcDbEntity
  8
Ebene 2
370
     0
100
AcDbVertex
100
AcDb2dVertex
 10
134.8710985971148
 20
66.31330870390136
 30
0.0
  0
VERTEX
  5
4C
330
3C
100
AcDbEntity
  8
Ebene 2
370
     0
100
AcDbVertex
100
AcDb2dVertex
 10
144.8270866078482
 20
56.35663167361628
 30
0.0
  0
VERTEX
  5
4D
330
3C
100
AcDbEntity
  8
Ebene 2
370
     0
100
AcDbVertex
100
AcDb2dVertex
 10
154.7834191283575
 20
66.31330870390136
 30
0.0
  0
VERTEX
  5
4E
330
3C
100
AcDbEntity
  8
Ebene 2
370
     0
100
AcDbVertex
100
AcDb2dVertex
 10
164.7397516488668
 20
56.35663167361628
 30
0.0
  0
VERTEX
  5
4F
330
3C
100
AcDbEntity
  8
Ebene 2
370
     0
100
AcDbVertex
100
AcDb2dVertex
 10
174.6960841693761
 20
66.31261968434977
 30
0.0
  0
VERTEX
  5
50
330
3C
100
AcDbEntity
  8
Ebene 2
370
     0
100
AcDbVertex
100
AcDb2dVertex
 10
184.6524166898853
 20
56.35663167361628
 30
0.0
  0
VERTEX
  5
51
330
3C
100
AcDbEntity
  8
Ebene 2
370
     0
100
AcDbVertex
100
AcDb2dVertex
 10
194.6084047006188
 20
66.31261968434977
 30
0.0
  0
VERTEX
  5
52
330
3C
100
AcDbEntity
  8
Ebene 2
370
     0
100
AcDbVertex
100
AcDb2dVertex
 10
200.0010162211563
 20
60.92000816381233
 30
0.0
  0
VERTEX
  5
53
330
3C
100
AcDbEntity
  8
Ebene 2
370
     0
100
AcDbVertex
100
AcDb2dVertex
 10
200.0010162211563
 20
54.20241204556284
 30
0.0
  0
VERTEX
  5
54
330
3C
100
AcDbEntity
  8
Ebene 2
370
     0
100
AcDbVertex
100
AcDb2dVertex
 10
194.6087492103946
 20
59.59502356610027
 30
0.0
  0
VERTEX
  5
55
330
3C
100
AcDbEntity
  8
Ebene 2
370
     0
100
AcDbVertex
100
AcDb2dVertex
 10
188.011387003898
 20
52.99766135960363
 30
0.0
  0
VERTEX
  5
56
330
3C
100
AcDbEntity
  8
Ebene 2
370
     0
100
AcDbVertex
100
AcDb2dVertex
 10
184.6524166898853
 20
49.63903555536678
 30
0.0
  0
VERTEX
  5
57
330
3C
100
AcDbEntity
  8
Ebene 2
370
     0
100
AcDbVertex
100
AcDb2dVertex
 10
181.2934463758727
 20
52.99766135960363
 30
0.0
  0
VERTEX
  5
58
330
3C
100
AcDbEntity
  8
Ebene 2
370
     0
100
AcDbVertex
100
AcDb2dVertex
 10
174.6960841693761
 20
59.59502356610027
 30
0.0
  0
VERTEX
  5
59
330
3C
100
AcDbEntity
  8
Ebene 2
370
     0
100
AcDbVertex
100
AcDb2dVertex
 10
168.0987219628794
 20
52.99800586937943
 30
0.0
  0
VERTEX
  5
5A
330
3C
100
AcDbEntity
  8
Ebene 2
370
     0
100
AcDbVertex
100
AcDb2dVertex
 10
164.7397516488668
 20
49.63903555536678
 30
0.0
  0
VERTEX
  5
5B
330
3C
100
AcDbEntity
  8
Ebene 2
370
     0
100
AcDbVertex
100
AcDb2dVertex
 10
161.3807813348542
 20
52.99800586937943
 30
0.0
  0
VERTEX
  5
5C
330
3C
100
AcDbEntity
  8
Ebene 2
370
     0
100
AcDbVertex
100
AcDb2dVertex
 10
154.7834191283575
 20
59.59571258565186
 30
0.0
  0
VERTEX
  5
5D
330
3C
100
AcDbEntity
  8
Ebene 2
370
     0
100
AcDbVertex
100
AcDb2dVertex
 10
148.1860569218609
 20
52.99800586937943
 30
0.0
  0
VERTEX
  5
5E
330
3C
100
AcDbEntity
  8
Ebene 2
370
     0
100
AcDbVertex
100
AcDb2dVertex
 10
144.8270866078482
 20
49.63903555536678
 30
0.0
  0
VERTEX
  5
5F
330
3C
100
AcDbEntity
  8
Ebene 2
370
     0
100
AcDbVertex
100
AcDb2dVertex
 10
141.4684608036114
 20
52.99800586937943
 30
0.0
  0
VERTEX
  5
60
330
3C
100
AcDbEntity
  8
Ebene 2
370
     0
100
AcDbVertex
100
AcDb2dVertex
 10
134.8710985971148
 20
59.59571258565186
 30
0.0
  0
VERTEX
  5
61
330
3C
100
AcDbEntity
  8
Ebene 2
370
     0
100
AcDbVertex
100
AcDb2dVertex
 10
128.2737363906181
 20
52.99800586937943
 30
0.0
  0
VERTEX
  5
62
330
3C
100
AcDbEntity
  8
Ebene 2
370
     0
100
AcDbVertex
100
AcDb2dVertex
 10
124.9147660766055
 20
49.63972457491838
 30
0.0
  0
VERTEX
  5
63
330
3C
100
AcDbEntity
  8
Ebene 2
370
     0
100
AcDbVertex
100
AcDb2dVertex
 10
121.5557957625928
 20
52.99800586937943
 30
0.0
  0
VERTEX
  5
64
330
3C
100
AcDbEntity
  8
Ebene 2
370
     0
100
AcDbVertex
100
AcDb2dVertex
 10
114.9584335560962
 20
59.59571258565186
 30
0.0
  0
VERTEX
  5
65
330
3C
100
AcDbEntity
  8
Ebene 2
370
     0
100
AcDbVertex
100
AcDb2dVertex
 10
108.3610713495996
 20
52.99800586937943
 30
0.0
  0
VERTEX
  5
66
330
3C
100
AcDbEntity
  8
Ebene 2
370
     0
100
AcDbVertex
100
AcDb2dVertex
 10
105.0021010355869
 20
49.63972457491838
 30
0.0
  0
VERTEX
  5
67
330
3C
100
AcDbEntity
  8
Ebene 2
370
     0
100
AcDbVertex
100
AcDb2dVertex
 10
101.6431307215743
 20
52.99800586937943
 30
0.0
  0
VERTEX
  5
68
330
3C
100
AcDbEntity
  8
Ebene 2
370
     0
100
AcDbVertex
100
AcDb2dVertex
 10
95.04576851507764
 20
59.59605709542765
 30
0.0
  0
VERTEX
  5
69
330
3C
100
AcDbEntity
  8
Ebene 2
370
     0
100
AcDbVertex
100
AcDb2dVertex
 10
88.4482340536931
 20
52.99869488893102
 30
0.0
  0
VERTEX
  5
6A
330
3C
100
AcDbEntity
  8
Ebene 2
370
     0
100
AcDbVertex
100
AcDb2dVertex
 10
85.08943599456836
 20
49.63972457491838
 30
0.0
  0
VERTEX
  5
6B
330
3C
100
AcDbEntity
  8
Ebene 2
370
     0
100
AcDbVertex
100
AcDb2dVertex
 10
81.73046568055571
 20
52.99869488893102
 30
0.0
  0
VERTEX
  5
6C
330
3C
100
AcDbEntity
  8
Ebene 2
370
     0
100
AcDbVertex
100
AcDb2dVertex
 10
75.13310347405907
 20
59.59605709542765
 30
0.0
  0
VERTEX
  5
6D
330
3C
100
AcDbEntity
  8
Ebene 2
370
     0
100
AcDbVertex
100
AcDb2dVertex
 10
68.53574126756244
 20
52.99869488893102
 30
0.0
  0
VERTEX
  5
6E
330
3C
100
AcDbEntity
  8
Ebene 2
370
     0
100
AcDbVertex
100
AcDb2dVertex
 10
65.17694320843769
 20
49.63972457491838
 30
0.0
  0
VERTEX
  5
6F
330
3C
100
AcDbEntity
  8
Ebene 2
370
     0
100
AcDbVertex
100
AcDb2dVertex
 10
61.81797289442505
 20
52.99869488893102
 30
0.0
  0
VERTEX
  5
70
330
3C
100
AcDbEntity
  8
Ebene 2
370
     0
100
AcDbVertex
100
AcDb2dVertex
 10
55.22061068792841
 20
59.59605709542765
 30
0.0
  0
VERTEX
  5
71
330
3C
100
AcDbEntity
  8
Ebene 2
370
     0
100
AcDbVertex
100
AcDb2dVertex
 10
48.62324848143178
 20
52.99869488893102
 30
0.0
  0
VERTEX
  5
72
330
3C
100
AcDbEntity
  8
Ebene 2
370
     0
100
AcDbVertex
100
AcDb2dVertex
 10
45.26427816741914
 20
49.64006908469418
 30
0.0
  0
VERTEX
  5
73
330
3C
100
AcDbEntity
  8
Ebene 2
370
     0
100
AcDbVertex
100
AcDb2dVertex
 10
41.90530785340649
 20
52.99869488893102
 30
0.0
  0
VERTEX
  5
74
330
3C
100
AcDbEntity
  8
Ebene 2
370
     0
100
AcDbVertex
100
AcDb2dVertex
 10
35.30794564690986
 20
59.59605709542765
 30
0.0
  0
VERTEX
  5
75
330
3C
100
AcDbEntity
  8
Ebene 2
370
     0
100
AcDbVertex
100
AcDb2dVertex
 10
28.71058344041322
 20
52.99869488893102
 30
0.0
  0
VERTEX
  5
76
330
3C
100
AcDbEntity
  8
Ebene 2
370
     0
100
AcDbVertex
100
AcDb2dVertex
 10
25.35178538128847
 20
49.64006908469418
 30
0.0
  0
VERTEX
  5
77
330
3C
100
AcDbEntity
  8
Ebene 2
370
     0
100
AcDbVertex
100
AcDb2dVertex
 10
21.99281506727583
 20
52.99869488893102
 30
0.0
  0
VERTEX
  5
78
330
3C
100
AcDbEntity
  8
Ebene 2
370
     0
100
AcDbVertex
100
AcDb2dVertex
 10
15.3952806058913
 20
59.59674611497925
 30
0.0
  0
VERTEX
  5
79
330
3C
100
AcDbEntity
  8
Ebene 2
370
     0
100
AcDbVertex
100
AcDb2dVertex
 10
10.00077428158698
 20
54.20206753578704
 30
0.0
  0
SEQEND
  5
7A
330
3C
100
AcDbEntity
  8
Ebene 2
370
     0
  0
POLYLINE
  5
7B
330
1F
100
AcDbEntity
  8
Ebene 2
370
     0
100
AcDb2dPolyline
 66
     1
 10
0.0
 20
0.0
 30
0.0
  0
VERTEX
  5
7C
330
7B
100
AcDbEntity
  8
Ebene 2
370
     0
100
AcDbVertex
100
AcDb2dVertex
 10
15.3952806058913
 20
73.03193835147825
 30
0.0
  0
VERTEX
  5
7D
330
7B
100
AcDbEntity
  8
Ebene 2
370
     0
100
AcDbVertex
100
AcDb2dVertex
 10
21.99264281238793
 20
66.4345761449816
 30
0.0
  0
VERTEX
  5
7E
330
7B
100
AcDbEntity
  8
Ebene 2
370
     0
100
AcDbVertex
100
AcDb2dVertex
 10
25.35161312640058
 20
63.07595034074476
 30
0.0
  0
VERTEX
  5
7F
330
7B
100
AcDbEntity
  8
Ebene 2
370
     0
100
AcDbVertex
100
AcDb2dVertex
 10
28.71041118552532
 20
66.4345761449816
 30
0.0
  0
VERTEX
  5
80
330
7B
100
AcDbEntity
  8
Ebene 2
370
     0
100
AcDbVertex
100
AcDb2dVertex
 10
35.30777339202196
 20
73.03193835147825
 30
0.0
  0
VERTEX
  5
81
330
7B
100
AcDbEntity
  8
Ebene 2
370
     0
100
AcDbVertex
100
AcDb2dVertex
 10
41.90513559851859
 20
66.4345761449816
 30
0.0
  0
VERTEX
  5
82
330
7B
100
AcDbEntity
  8
Ebene 2
370
     0
100
AcDbVertex
100
AcDb2dVertex
 10
45.26410591253124
 20
63.07526132119317
 30
0.0
  0
VERTEX
  5
83
330
7B
100
AcDbEntity
  8
Ebene 2
370
     0
100
AcDbVertex
100
AcDb2dVertex
 10
48.62307622654388
 20
66.4345761449816
 30
0.0
  0
VERTEX
  5
84
330
7B
100
AcDbEntity
  8
Ebene 2
370
     0
100
AcDbVertex
100
AcDb2dVertex
 10
55.22043843304051
 20
73.03193835147825
 30
0.0
  0
VERTEX
  5
85
330
7B
100
AcDbEntity
  8
Ebene 2
370
     0
100
AcDbVertex
100
AcDb2dVertex
 10
61.81780063953715
 20
66.4345761449816
 30
0.0
  0
VERTEX
  5
86
330
7B
100
AcDbEntity
  8
Ebene 2
370
     0
100
AcDbVertex
100
AcDb2dVertex
 10
65.17677095354979
 20
63.07526132119317
 30
0.0
  0
VERTEX
  5
87
330
7B
100
AcDbEntity
  8
Ebene 2
370
     0
100
AcDbVertex
100
AcDb2dVertex
 10
68.53556901267454
 20
66.43388712543002
 30
0.0
  0
VERTEX
  5
88
330
7B
100
AcDbEntity
  8
Ebene 2
370
     0
100
AcDbVertex
100
AcDb2dVertex
 10
75.13293121917118
 20
73.03124933192665
 30
0.0
  0
VERTEX
  5
89
330
7B
100
AcDbEntity
  8
Ebene 2
370
     0
100
AcDbVertex
100
AcDb2dVertex
 10
81.73029342566781
 20
66.43388712543002
 30
0.0
  0
VERTEX
  5
8A
330
7B
100
AcDbEntity
  8
Ebene 2
370
     0
100
AcDbVertex
100
AcDb2dVertex
 10
85.08926373968046
 20
63.07526132119317
 30
0.0
  0
VERTEX
  5
8B
330
7B
100
AcDbEntity
  8
Ebene 2
370
     0
100
AcDbVertex
100
AcDb2dVertex
 10
88.4482340536931
 20
66.43388712543002
 30
0.0
  0
VERTEX
  5
8C
330
7B
100
AcDbEntity
  8
Ebene 2
370
     0
100
AcDbVertex
100
AcDb2dVertex
 10
95.04576851507764
 20
73.03124933192665
 30
0.0
  0
VERTEX
  5
8D
330
7B
100
AcDbEntity
  8
Ebene 2
370
     0
100
AcDbVertex
100
AcDb2dVertex
 10
101.6431307215743
 20
66.43388712543002
 30
0.0
  0
VERTEX
  5
8E
330
7B
100
AcDbEntity
  8
Ebene 2
370
     0
100
AcDbVertex
100
AcDb2dVertex
 10
105.0017565258111
 20
63.07526132119317
 30
0.0
  0
VERTEX
  5
8F
330
7B
100
AcDbEntity
  8
Ebene 2
370
     0
100
AcDbVertex
100
AcDb2dVertex
 10
108.3610713495996
 20
66.43388712543002
 30
0.0
  0
VERTEX
  5
90
330
7B
100
AcDbEntity
  8
Ebene 2
370
     0
100
AcDbVertex
100
AcDb2dVertex
 10
114.9584335560962
 20
73.03124933192665
 30
0.0
  0
VERTEX
  5
91
330
7B
100
AcDbEntity
  8
Ebene 2
370
     0
100
AcDbVertex
100
AcDb2dVertex
 10
121.5557957625928
 20
66.43388712543002
 30
0.0
  0
VERTEX
  5
92
330
7B
100
AcDbEntity
  8
Ebene 2
370
     0
100
AcDbVertex
100
AcDb2dVertex
 10
124.9144215668297
 20
63.07457230164157
 30
0.0
  0
VERTEX
  5
93
330
7B
100
AcDbEntity
  8
Ebene 2
370
     0
100
AcDbVertex
100
AcDb2dVertex
 10
128.2733918808423
 20
66.43388712543002
 30
0.0
  0
VERTEX
  5
94
330
7B
100
AcDbEntity
  8
Ebene 2
370
     0
100
AcDbVertex
100
AcDb2dVertex
 10
134.870754087339
 20
73.03124933192665
 30
0.0
  0
VERTEX
  5
95
330
7B
100
AcDbEntity
  8
Ebene 2
370
     0
100
AcDbVertex
100
AcDb2dVertex
 10
141.4681162938356
 20
66.43388712543002
 30
0.0
  0
VERTEX
  5
96
330
7B
100
AcDbEntity
  8
Ebene 2
370
     0
100
AcDbVertex
100
AcDb2dVertex
 10
144.8270866078482
 20
63.07457230164157
 30
0.0
  0
VERTEX
  5
97
330
7B
100
AcDbEntity
  8
Ebene 2
370
     0
100
AcDbVertex
100
AcDb2dVertex
 10
148.1860569218609
 20
66.43388712543002
 30
0.0
  0
VERTEX
  5
98
330
7B
100
AcDbEntity
  8
Ebene 2
370
     0
100
AcDbVertex
100
AcDb2dVertex
 10
154.7834191283575
 20
73.03124933192665
 30
0.0
  0
VERTEX
  5
99
330
7B
100
AcDbEntity
  8
Ebene 2
370
     0
100
AcDbVertex
100
AcDb2dVertex
 10
161.3807813348542
 20
66.43319810587842
 30
0.0
  0
VERTEX
  5
9A
330
7B
100
AcDbEntity
  8
Ebene 2
370
     0
100
AcDbVertex
100
AcDb2dVertex
 10
164.7397516488668
 20
63.07457230164157
 30
0.0
  0
VERTEX
  5
9B
330
7B
100
AcDbEntity
  8
Ebene 2
370
     0
100
AcDbVertex
100
AcDb2dVertex
 10
168.0987219628794
 20
66.43319810587842
 30
0.0
  0
VERTEX
  5
9C
330
7B
100
AcDbEntity
  8
Ebene 2
370
     0
100
AcDbVertex
100
AcDb2dVertex
 10
174.6957396596003
 20
73.03056031237506
 30
0.0
  0
VERTEX
  5
9D
330
7B
100
AcDbEntity
  8
Ebene 2
370
     0
100
AcDbVertex
100
AcDb2dVertex
 10
181.2934463758727
 20
66.43319810587842
 30
0.0
  0
VERTEX
  5
9E
330
7B
100
AcDbEntity
  8
Ebene 2
370
     0
100
AcDbVertex
100
AcDb2dVertex
 10
184.6524166898853
 20
63.07457230164157
 30
0.0
  0
VERTEX
  5
9F
330
7B
100
AcDbEntity
  8
Ebene 2
370
     0
100
AcDbVertex
100
AcDb2dVertex
 10
188.011387003898
 20
66.43319810587842
 30
0.0
  0
VERTEX
  5
A0
330
7B
100
AcDbEntity
  8
Ebene 2
370
     0
100
AcDbVertex
100
AcDb2dVertex
 10
194.6084047006188
 20
73.03056031237506
 30
0.0
  0
VERTEX
  5
A1
330
7B
100
AcDbEntity
  8
Ebene 2
370
     0
100
AcDbVertex
100
AcDb2dVertex
 10
200.0010162211563
 20
67.63829330161342
 30
0.0
  0
VERTEX
  5
A2
330
7B
100
AcDbEntity
  8
Ebene 2
370
     0
100
AcDbVertex
100
AcDb2dVertex
 10
200.0010162211563
 20
74.35554491008712
 30
0.0
  0
VERTEX
  5
A3
330
7B
100
AcDbEntity
  8
Ebene 2
370
     0
100
AcDbVertex
100
AcDb2dVertex
 10
194.6084047006188
 20
79.74850094040035
 30
0.0
  0
VERTEX
  5
A4
330
7B
100
AcDbEntity
  8
Ebene 2
370
     0
100
AcDbVertex
100
AcDb2dVertex
 10
184.6524166898853
 20
69.79251292966687
 30
0.0
  0
VERTEX
  5
A5
330
7B
100
AcDbEntity
  8
Ebene 2
370
     0
100
AcDbVertex
100
AcDb2dVertex
 10
174.6957396596003
 20
79.74850094040035
 30
0.0
  0
VERTEX
  5
A6
330
7B
100
AcDbEntity
  8
Ebene 2
370
     0
100
AcDbVertex
100
AcDb2dVertex
 10
164.7397516488668
 20
69.79251292966687
 30
0.0
  0
VERTEX
  5
A7
330
7B
100
AcDbEntity
  8
Ebene 2
370
     0
100
AcDbVertex
100
AcDb2dVertex
 10
154.7834191283575
 20
79.74850094040035
 30
0.0
  0
VERTEX
  5
A8
330
7B
100
AcDbEntity
  8
Ebene 2
370
     0
100
AcDbVertex
100
AcDb2dVertex
 10
144.8270866078482
 20
69.79251292966687
 30
0.0
  0
VERTEX
  5
A9
330
7B
100
AcDbEntity
  8
Ebene 2
370
     0
100
AcDbVertex
100
AcDb2dVertex
 10
134.870754087339
 20
79.74918995995195
 30
0.0
  0
VERTEX
  5
AA
330
7B
100
AcDbEntity
  8
Ebene 2
370
     0
100
AcDbVertex
100
AcDb2dVertex
 10
124.9144215668297
 20
69.79251292966687
 30
0.0
  0
VERTEX
  5
AB
330
7B
100
AcDbEntity
  8
Ebene 2
370
     0
100
AcDbVertex
100
AcDb2dVertex
 10
114.9580890463204
 20
79.74918995995195
 30
0.0
  0
VERTEX
  5
AC
330
7B
100
AcDbEntity
  8
Ebene 2
370
     0
100
AcDbVertex
100
AcDb2dVertex
 10
105.0017565258111
 20
69.79320194921846
 30
0.0
  0
VERTEX
  5
AD
330
7B
100
AcDbEntity
  8
Ebene 2
370
     0
100
AcDbVertex
100
AcDb2dVertex
 10
95.04576851507764
 20
79.74918995995195
 30
0.0
  0
VERTEX
  5
AE
330
7B
100
AcDbEntity
  8
Ebene 2
370
     0
100
AcDbVertex
100
AcDb2dVertex
 10
85.08926373968046
 20
69.79320194921846
 30
0.0
  0
VERTEX
  5
AF
330
7B
100
AcDbEntity
  8
Ebene 2
370
     0
100
AcDbVertex
100
AcDb2dVertex
 10
75.13293121917118
 20
79.74918995995195
 30
0.0
  0
VERTEX
  5
B0
330
7B
100
AcDbEntity
  8
Ebene 2
370
     0
100
AcDbVertex
100
AcDb2dVertex
 10
65.17659869866189
 20
69.79320194921846
 30
0.0
  0
VERTEX
  5
B1
330
7B
100
AcDbEntity
  8
Ebene 2
370
     0
100
AcDbVertex
100
AcDb2dVertex
 10
55.22026617815262
 20
79.74987897950353
 30
0.0
  0
VERTEX
  5
B2
330
7B
100
AcDbEntity
  8
Ebene 2
370
     0
100
AcDbVertex
100
AcDb2dVertex
 10
45.26410591253124
 20
69.79320194921846
 30
0.0
  0
VERTEX
  5
B3
330
7B
100
AcDbEntity
  8
Ebene 2
370
     0
100
AcDbVertex
100
AcDb2dVertex
 10
35.30777339202196
 20
79.74987897950353
 30
0.0
  0
VERTEX
  5
B4
330
7B
100
AcDbEntity
  8
Ebene 2
370
     0
100
AcDbVertex
100
AcDb2dVertex
 10
25.35144087151268
 20
69.79320194921846
 30
0.0
  0
VERTEX
  5
B5
330
7B
100
AcDbEntity
  8
Ebene 2
370
     0
100
AcDbVertex
100
AcDb2dVertex
 10
15.3951083510034
 20
79.74987897950353
 30
0.0
  0
VERTEX
  5
B6
330
7B
100
AcDbEntity
  8
Ebene 2
370
     0
100
AcDbVertex
100
AcDb2dVertex
 10
10.00077428158698
 20
74.35554491008712
 30
0.0
  0
VERTEX
  5
B7
330
7B
100
AcDbEntity
  8
Ebene 2
370
     0
100
AcDbVertex
100
AcDb2dVertex
 10
10.00077428158698
 20
67.63725977228603
 30
0.0
  0
VERTEX
  5
B8
330
7B
100
AcDbEntity
  8
Ebene 2
370
     0
100
AcDbVertex
100
AcDb2dVertex
 10
15.3952806058913
 20
73.03193835147825
 30
0.0
  0
SEQEND
  5
B9
330
7B
100
AcDbEntity
  8
Ebene 2
370
     0
  0
POLYLINE
  5
BA
330
1F
100
AcDbEntity
  8
Ebene 2
370
     0
100
AcDb2dPolyline
 66
     1
 10
0.0
 20
0.0
 30
0.0
  0
VERTEX
  5
BB
330
BA
100
AcDbEntity
  8
Ebene 2
370
     0
100
AcDbVertex
100
AcDb2dVertex
 10
15.3951083510034
 20
86.46747509775302
 30
0.0
  0
VERTEX
  5
BC
330
BA
100
AcDbEntity
  8
Ebene 2
370
     0
100
AcDbVertex
100
AcDb2dVertex
 10
21.99247055750003
 20
79.8701128912564
 30
0.0
  0
VERTEX
  5
BD
330
BA
100
AcDbEntity
  8
Ebene 2
370
     0
100
AcDbVertex
100
AcDb2dVertex
 10
25.35144087151268
 20
76.51079806746796
 30
0.0
  0
VERTEX
  5
BE
330
BA
100
AcDbEntity
  8
Ebene 2
370
     0
100
AcDbVertex
100
AcDb2dVertex
 10
28.71041118552532
 20
79.8701128912564
 30
0.0
  0
VERTEX
  5
BF
330
BA
100
AcDbEntity
  8
Ebene 2
370
     0
100
AcDbVertex
100
AcDb2dVertex
 10
35.30760113713406
 20
86.46747509775302
 30
0.0
  0
VERTEX
  5
C0
330
BA
100
AcDbEntity
  8
Ebene 2
370
     0
100
AcDbVertex
100
AcDb2dVertex
 10
41.90513559851859
 20
79.8701128912564
 30
0.0
  0
VERTEX
  5
C1
330
BA
100
AcDbEntity
  8
Ebene 2
370
     0
100
AcDbVertex
100
AcDb2dVertex
 10
45.26410591253124
 20
76.51079806746796
 30
0.0
  0
VERTEX
  5
C2
330
BA
100
AcDbEntity
  8
Ebene 2
370
     0
100
AcDbVertex
100
AcDb2dVertex
 10
48.62290397165599
 20
79.8701128912564
 30
0.0
  0
VERTEX
  5
C3
330
BA
100
AcDbEntity
  8
Ebene 2
370
     0
100
AcDbVertex
100
AcDb2dVertex
 10
55.22026617815262
 20
86.46678607820144
 30
0.0
  0
VERTEX
  5
C4
330
BA
100
AcDbEntity
  8
Ebene 2
370
     0
100
AcDbVertex
100
AcDb2dVertex
 10
61.81780063953715
 20
79.86942387170481
 30
0.0
  0
VERTEX
  5
C5
330
BA
100
AcDbEntity
  8
Ebene 2
370
     0
100
AcDbVertex
100
AcDb2dVertex
 10
65.17659869866189
 20
76.51079806746796
 30
0.0
  0
VERTEX
  5
C6
330
BA
100
AcDbEntity
  8
Ebene 2
370
     0
100
AcDbVertex
100
AcDb2dVertex
 10
68.53556901267454
 20
79.86942387170481
 30
0.0
  0
VERTEX
  5
C7
330
BA
100
AcDbEntity
  8
Ebene 2
370
     0
100
AcDbVertex
100
AcDb2dVertex
 10
75.13275896428328
 20
86.46678607820144
 30
0.0
  0
VERTEX
  5
C8
330
BA
100
AcDbEntity
  8
Ebene 2
370
     0
100
AcDbVertex
100
AcDb2dVertex
 10
81.73029342566781
 20
79.86942387170481
 30
0.0
  0
VERTEX
  5
C9
330
BA
100
AcDbEntity
  8
Ebene 2
370
     0
100
AcDbVertex
100
AcDb2dVertex
 10
85.08926373968046
 20
76.51079806746796
 30
0.0
  0
VERTEX
  5
CA
330
BA
100
AcDbEntity
  8
Ebene 2
370
     0
100
AcDbVertex
100
AcDb2dVertex
 10
88.4480617988052
 20
79.86942387170481
 30
0.0
  0
VERTEX
  5
CB
330
BA
100
AcDbEntity
  8
Ebene 2
370
     0
100
AcDbVertex
100
AcDb2dVertex
 10
95.04542400530184
 20
86.46678607820144
 30
0.0
  0
VERTEX
  5
CC
330
BA
100
AcDbEntity
  8
Ebene 2
370
     0
100
AcDbVertex
100
AcDb2dVertex
 10
101.6431307215743
 20
79.86942387170481
 30
0.0
  0
VERTEX
  5
CD
330
BA
100
AcDbEntity
  8
Ebene 2
370
     0
100
AcDbVertex
100
AcDb2dVertex
 10
105.0017565258111
 20
76.51045355769216
 30
0.0
  0
VERTEX
  5
CE
330
BA
100
AcDbEntity
  8
Ebene 2
370
     0
100
AcDbVertex
100
AcDb2dVertex
 10
108.3607268398238
 20
79.86942387170481
 30
0.0
  0
VERTEX
  5
CF
330
BA
100
AcDbEntity
  8
Ebene 2
370
     0
100
AcDbVertex
100
AcDb2dVertex
 10
114.9580890463204
 20
86.46678607820144
 30
0.0
  0
VERTEX
  5
D0
330
BA
100
AcDbEntity
  8
Ebene 2
370
     0
100
AcDbVertex
100
AcDb2dVertex
 10
121.555451252817
 20
79.86942387170481
 30
0.0
  0
VERTEX
  5
D1
330
BA
100
AcDbEntity
  8
Ebene 2
370
     0
100
AcDbVertex
100
AcDb2dVertex
 10
124.9144215668297
 20
76.51045355769216
 30
0.0
  0
VERTEX
  5
D2
330
BA
100
AcDbEntity
  8
Ebene 2
370
     0
100
AcDbVertex
100
AcDb2dVertex
 10
128.2733918808423
 20
79.86942387170481
 30
0.0
  0
VERTEX
  5
D3
330
BA
100
AcDbEntity
  8
Ebene 2
370
     0
100
AcDbVertex
100
AcDb2dVertex
 10
134.8704095775632
 20
86.46644156842564
 30
0.0
  0
VERTEX
  5
D4
330
BA
100
AcDbEntity
  8
Ebene 2
370
     0
100
AcDbVertex
100
AcDb2dVertex
 10
141.4681162938356
 20
79.86873485215321
 30
0.0
  0
VERTEX
  5
D5
330
BA
100
AcDbEntity
  8
Ebene 2
370
     0
100
AcDbVertex
100
AcDb2dVertex
 10
144.8270866078482
 20
76.51045355769216
 30
0.0
  0
VERTEX
  5
D6
330
BA
100
AcDbEntity
  8
Ebene 2
370
     0
100
AcDbVertex
100
AcDb2dVertex
 10
148.1860569218609
 20
79.86873485215321
 30
0.0
  0
VERTEX
  5
D7
330
BA
100
AcDbEntity
  8
Ebene 2
370
     0
100
AcDbVertex
100
AcDb2dVertex
 10
154.7834191283575
 20
86.46644156842564
 30
0.0
  0
VERTEX
  5
D8
330
BA
100
AcDbEntity
  8
Ebene 2
370
     0
100
AcDbVertex
100
AcDb2dVertex
 10
161.3807813348542
 20
79.86873485215321
 30
0.0
  0
VERTEX
  5
D9
330
BA
100
AcDbEntity
  8
Ebene 2
370
     0
100
AcDbVertex
100
AcDb2dVertex
 10
164.7397516488668
 20
76.51045355769216
 30
0.0
  0
VERTEX
  5
DA
330
BA
100
AcDbEntity
  8
Ebene 2
370
     0
100
AcDbVertex
100
AcDb2dVertex
 10
168.0983774531036
 20
79.86873485215321
 30
0.0
  0
VERTEX
  5
DB
330
BA
100
AcDbEntity
  8
Ebene 2
370
     0
100
AcDbVertex
100
AcDb2dVertex
 10
174.6957396596003
 20
86.46644156842564
 30
0.0
  0
VERTEX
  5
DC
330
BA
100
AcDbEntity
  8
Ebene 2
370
     0
100
AcDbVertex
100
AcDb2dVertex
 10
181.2931018660969
 20
79.86873485215321
 30
0.0
  0
VERTEX
  5
DD
330
BA
100
AcDbEntity
  8
Ebene 2
370
     0
100
AcDbVertex
100
AcDb2dVertex
 10
184.6520721801096
 20
76.50976453814057
 30
0.0
  0
VERTEX
  5
DE
330
BA
100
AcDbEntity
  8
Ebene 2
370
     0
100
AcDbVertex
100
AcDb2dVertex
 10
188.0110424941222
 20
79.86873485215321
 30
0.0
  0
VERTEX
  5
DF
330
BA
100
AcDbEntity
  8
Ebene 2
370
     0
100
AcDbVertex
100
AcDb2dVertex
 10
194.6084047006188
 20
86.46644156842564
 30
0.0
  0
VERTEX
  5
E0
330
BA
100
AcDbEntity
  8
Ebene 2
370
     0
100
AcDbVertex
100
AcDb2dVertex
 10
200.0010162211563
 20
81.07348553811241
 30
0.0
  0
VERTEX
  5
E1
330
BA
100
AcDbEntity
  8
Ebene 2
370
     0
100
AcDbVertex
100
AcDb2dVertex
 10
200.0010162211563
 20
87.79108165636191
 30
0.0
  0
VERTEX
  5
E2
330
BA
100
AcDbEntity
  8
Ebene 2
370
     0
100
AcDbVertex
100
AcDb2dVertex
 10
194.6084047006188
 20
93.18403768667514
 30
0.0
  0
VERTEX
  5
E3
330
BA
100
AcDbEntity
  8
Ebene 2
370
     0
100
AcDbVertex
100
AcDb2dVertex
 10
184.6520721801096
 20
83.22736065639006
 30
0.0
  0
VERTEX
  5
E4
330
BA
100
AcDbEntity
  8
Ebene 2
370
     0
100
AcDbVertex
100
AcDb2dVertex
 10
174.6957396596003
 20
93.18403768667514
 30
0.0
  0
VERTEX
  5
E5
330
BA
100
AcDbEntity
  8
Ebene 2
370
     0
100
AcDbVertex
100
AcDb2dVertex
 10
164.739407139091
 20
83.22736065639006
 30
0.0
  0
VERTEX
  5
E6
330
BA
100
AcDbEntity
  8
Ebene 2
370
     0
100
AcDbVertex
100
AcDb2dVertex
 10
154.7830746185817
 20
93.18403768667514
 30
0.0
  0
VERTEX
  5
E7
330
BA
100
AcDbEntity
  8
Ebene 2
370
     0
100
AcDbVertex
100
AcDb2dVertex
 10
144.8270866078482
 20
83.22804967594165
 30
0.0
  0
VERTEX
  5
E8
330
BA
100
AcDbEntity
  8
Ebene 2
370
     0
100
AcDbVertex
100
AcDb2dVertex
 10
134.8704095775632
 20
93.18403768667514
 30
0.0
  0
VERTEX
  5
E9
330
BA
100
AcDbEntity
  8
Ebene 2
370
     0
100
AcDbVertex
100
AcDb2dVertex
 10
124.9144215668297
 20
83.22804967594165
 30
0.0
  0
VERTEX
  5
EA
330
BA
100
AcDbEntity
  8
Ebene 2
370
     0
100
AcDbVertex
100
AcDb2dVertex
 10
114.9577445365446
 20
93.18472670622673
 30
0.0
  0
VERTEX
  5
EB
330
BA
100
AcDbEntity
  8
Ebene 2
370
     0
100
AcDbVertex
100
AcDb2dVertex
 10
105.0017565258111
 20
83.22804967594165
 30
0.0
  0
VERTEX
  5
EC
330
BA
100
AcDbEntity
  8
Ebene 2
370
     0
100
AcDbVertex
100
AcDb2dVertex
 10
95.04542400530184
 20
93.18472670622673
 30
0.0
  0
VERTEX
  5
ED
330
BA
100
AcDbEntity
  8
Ebene 2
370
     0
100
AcDbVertex
100
AcDb2dVertex
 10
85.08926373968046
 20
83.22873869549325
 30
0.0
  0
VERTEX
  5
EE
330
BA
100
AcDbEntity
  8
Ebene 2
370
     0
100
AcDbVertex
100
AcDb2dVertex
 10
75.13275896428328
 20
93.18472670622673
 30
0.0
  0
VERTEX
  5
EF
330
BA
100
AcDbEntity
  8
Ebene 2
370
     0
100
AcDbVertex
100
AcDb2dVertex
 10
65.17659869866189
 20
83.22873869549325
 30
0.0
  0
VERTEX
  5
F0
330
BA
100
AcDbEntity
  8
Ebene 2
370
     0
100
AcDbVertex
100
AcDb2dVertex
 10
55.22009392326472
 20
93.18472670622673
 30
0.0
  0
VERTEX
  5
F1
330
BA
100
AcDbEntity
  8
Ebene 2
370
     0
100
AcDbVertex
100
AcDb2dVertex
 10
45.26410591253124
 20
83.22873869549325
 30
0.0
  0
VERTEX
  5
F2
330
BA
100
AcDbEntity
  8
Ebene 2
370
     0
100
AcDbVertex
100
AcDb2dVertex
 10
35.30760113713406
 20
93.18541572577833
 30
0.0
  0
VERTEX
  5
F3
330
BA
100
AcDbEntity
  8
Ebene 2
370
     0
100
AcDbVertex
100
AcDb2dVertex
 10
25.35144087151268
 20
83.22873869549325
 30
0.0
  0
VERTEX
  5
F4
330
BA
100
AcDbEntity
  8
Ebene 2
370
     0
100
AcDbVertex
100
AcDb2dVertex
 10
15.3949360961155
 20
93.18541572577833
 30
0.0
  0
VERTEX
  5
F5
330
BA
100
AcDbEntity
  8
Ebene 2
370
     0
100
AcDbVertex
100
AcDb2dVertex
 10
10.00077428158698
 20
87.79142616613771
 30
0.0
  0
VERTEX
  5
F6
330
BA
100
AcDbEntity
  8
Ebene 2
370
     0
100
AcDbVertex
100
AcDb2dVertex
 10
10.00077428158698
 20
81.07314102833662
 30
0.0
  0
VERTEX
  5
F7
330
BA
100
AcDbEntity
  8
Ebene 2
370
     0
100
AcDbVertex
100
AcDb2dVertex
 10
15.3951083510034
 20
86.46747509775302
 30
0.0
  0
SEQEND
  5
F8
330
BA
100
AcDbEntity
  8
Ebene 2
370
     0
  0
POLYLINE
  5
F9
330
1F
100
AcDbEntity
  8
Ebene 2
370
     0
100
AcDb2dPolyline
 66
     1
 10
0.0
 20
0.0
 30
0.0
  0
VERTEX
  5
FA
330
F9
100
AcDbEntity
  8
Ebene 2
370
     0
100
AcDbVertex
100
AcDb2dVertex
 10
137.4421750538816
 20
10.00042977181119
 30
0.0
  0
VERTEX
  5
FB
330
F9
100
AcDbEntity
  8
Ebene 2
370
     0
100
AcDbVertex
100
AcDb2dVertex
 10
134.8714431068906
 20
12.5711617188022
 30
0.0
  0
VERTEX
  5
FC
330
F9
100
AcDbEntity
  8
Ebene 2
370
     0
100
AcDbVertex
100
AcDb2dVertex
 10
132.3003666501237
 20
10.00042977181119
 30
0.0
  0
VERTEX
  5
FD
330
F9
100
AcDbEntity
  8
Ebene 2
370
     0
100
AcDbVertex
100
AcDb2dVertex
 10
137.4421750538816
 20
10.00042977181119
 30
0.0
  0
SEQEND
  5
FE
330
F9
100
AcDbEntity
  8
Ebene 2
370
     0
  0
POLYLINE
  5
FF
330
1F
100
AcDbEntity
  8
Ebene 2
370
     0
100
AcDb2dPolyline
 66
     1
 10
0.0
 20
0.0
 30
0.0
  0
VERTEX
  5
100
330
FF
100
AcDbEntity
  8
Ebene 2
370
     0
100
AcDbVertex
100
AcDb2dVertex
 10
112.388046118881
 20
10.00042977181119
 30
0.0
  0
VERTEX
  5
101
330
FF
100
AcDbEntity
  8
Ebene 2
370
     0
100
AcDbVertex
100
AcDb2dVertex
 10
117.529510012863
 20
10.00042977181119
 30
0.0
  0
VERTEX
  5
102
330
FF
100
AcDbEntity
  8
Ebene 2
370
     0
100
AcDbVertex
100
AcDb2dVertex
 10
114.958778065872
 20
12.5711617188022
 30
0.0
  0
VERTEX
  5
103
330
FF
100
AcDbEntity
  8
Ebene 2
370
     0
100
AcDbVertex
100
AcDb2dVertex
 10
112.388046118881
 20
10.00042977181119
 30
0.0
  0
SEQEND
  5
104
330
FF
100
AcDbEntity
  8
Ebene 2
370
     0
  0
POLYLINE
  5
105
330
1F
100
AcDbEntity
  8
Ebene 2
370
     0
100
AcDb2dPolyline
 66
     1
 10
0.0
 20
0.0
 30
0.0
  0
VERTEX
  5
106
330
105
100
AcDbEntity
  8
Ebene 2
370
     0
100
AcDbVertex
100
AcDb2dVertex
 10
15.39545286077919
 20
46.16120936870446
 30
0.0
  0
VERTEX
  5
107
330
105
100
AcDbEntity
  8
Ebene 2
370
     0
100
AcDbVertex
100
AcDb2dVertex
 10
21.99298732216372
 20
39.56384716220783
 30
0.0
  0
VERTEX
  5
108
330
105
100
AcDbEntity
  8
Ebene 2
370
     0
100
AcDbVertex
100
AcDb2dVertex
 10
25.35178538128847
 20
36.20453233841938
 30
0.0
  0
VERTEX
  5
109
330
105
100
AcDbEntity
  8
Ebene 2
370
     0
100
AcDbVertex
100
AcDb2dVertex
 10
28.71075569530112
 20
39.56384716220783
 30
0.0
  0
VERTEX
  5
10A
330
105
100
AcDbEntity
  8
Ebene 2
370
     0
100
AcDbVertex
100
AcDb2dVertex
 10
35.30794564690986
 20
46.16120936870446
 30
0.0
  0
VERTEX
  5
10B
330
105
100
AcDbEntity
  8
Ebene 2
370
     0
100
AcDbVertex
100
AcDb2dVertex
 10
41.90548010829438
 20
39.56315814265623
 30
0.0
  0
VERTEX
  5
10C
330
105
100
AcDbEntity
  8
Ebene 2
370
     0
100
AcDbVertex
100
AcDb2dVertex
 10
45.26445042230704
 20
36.20453233841938
 30
0.0
  0
VERTEX
  5
10D
330
105
100
AcDbEntity
  8
Ebene 2
370
     0
100
AcDbVertex
100
AcDb2dVertex
 10
48.62342073631968
 20
39.56315814265623
 30
0.0
  0
VERTEX
  5
10E
330
105
100
AcDbEntity
  8
Ebene 2
370
     0
100
AcDbVertex
100
AcDb2dVertex
 10
55.22061068792841
 20
46.16052034915287
 30
0.0
  0
VERTEX
  5
10F
330
105
100
AcDbEntity
  8
Ebene 2
370
     0
100
AcDbVertex
100
AcDb2dVertex
 10
61.81814514931295
 20
39.56315814265623
 30
0.0
  0
VERTEX
  5
110
330
105
100
AcDbEntity
  8
Ebene 2
370
     0
100
AcDbVertex
100
AcDb2dVertex
 10
65.17711546332559
 20
36.20453233841938
 30
0.0
  0
VERTEX
  5
111
330
105
100
AcDbEntity
  8
Ebene 2
370
     0
100
AcDbVertex
100
AcDb2dVertex
 10
68.53591352245034
 20
39.56315814265623
 30
0.0
  0
VERTEX
  5
112
330
105
100
AcDbEntity
  8
Ebene 2
370
     0
100
AcDbVertex
100
AcDb2dVertex
 10
75.13310347405907
 20
46.16052034915287
 30
0.0
  0
VERTEX
  5
113
330
105
100
AcDbEntity
  8
Ebene 2
370
     0
100
AcDbVertex
100
AcDb2dVertex
 10
81.73063793544361
 20
39.56315814265623
 30
0.0
  0
VERTEX
  5
114
330
105
100
AcDbEntity
  8
Ebene 2
370
     0
100
AcDbVertex
100
AcDb2dVertex
 10
85.08960824945625
 20
36.20384331886779
 30
0.0
  0
VERTEX
  5
115
330
105
100
AcDbEntity
  8
Ebene 2
370
     0
100
AcDbVertex
100
AcDb2dVertex
 10
88.4482340536931
 20
39.56315814265623
 30
0.0
  0
VERTEX
  5
116
330
105
100
AcDbEntity
  8
Ebene 2
370
     0
100
AcDbVertex
100
AcDb2dVertex
 10
95.04576851507764
 20
46.16052034915287
 30
0.0
  0
VERTEX
  5
117
330
105
100
AcDbEntity
  8
Ebene 2
370
     0
100
AcDbVertex
100
AcDb2dVertex
 10
101.6431307215743
 20
39.56315814265623
 30
0.0
  0
VERTEX
  5
118
330
105
100
AcDbEntity
  8
Ebene 2
370
     0
100
AcDbVertex
100
AcDb2dVertex
 10
105.0024455453627
 20
36.20384331886779
 30
0.0
  0
VERTEX
  5
119
330
105
100
AcDbEntity
  8
Ebene 2
370
     0
100
AcDbVertex
100
AcDb2dVertex
 10
108.3610713495996
 20
39.56315814265623
 30
0.0
  0
VERTEX
  5
11A
330
105
100
AcDbEntity
  8
Ebene 2
370
     0
100
AcDbVertex
100
AcDb2dVertex
 10
114.9584335560962
 20
46.16052034915287
 30
0.0
  0
VERTEX
  5
11B
330
105
100
AcDbEntity
  8
Ebene 2
370
     0
100
AcDbVertex
100
AcDb2dVertex
 10
121.5557957625928
 20
39.56315814265623
 30
0.0
  0
VERTEX
  5
11C
330
105
100
AcDbEntity
  8
Ebene 2
370
     0
100
AcDbVertex
100
AcDb2dVertex
 10
124.9147660766055
 20
36.20384331886779
 30
0.0
  0
VERTEX
  5
11D
330
105
100
AcDbEntity
  8
Ebene 2
370
     0
100
AcDbVertex
100
AcDb2dVertex
 10
128.2737363906181
 20
39.56246912310464
 30
0.0
  0
VERTEX
  5
11E
330
105
100
AcDbEntity
  8
Ebene 2
370
     0
100
AcDbVertex
100
AcDb2dVertex
 10
134.8710985971148
 20
46.15983132960127
 30
0.0
  0
VERTEX
  5
11F
330
105
100
AcDbEntity
  8
Ebene 2
370
     0
100
AcDbVertex
100
AcDb2dVertex
 10
141.4684608036114
 20
39.56246912310464
 30
0.0
  0
VERTEX
  5
120
330
105
100
AcDbEntity
  8
Ebene 2
370
     0
100
AcDbVertex
100
AcDb2dVertex
 10
144.827431117624
 20
36.20384331886779
 30
0.0
  0
VERTEX
  5
121
330
105
100
AcDbEntity
  8
Ebene 2
370
     0
100
AcDbVertex
100
AcDb2dVertex
 10
148.1864014316367
 20
39.56246912310464
 30
0.0
  0
VERTEX
  5
122
330
105
100
AcDbEntity
  8
Ebene 2
370
     0
100
AcDbVertex
100
AcDb2dVertex
 10
154.7837636381333
 20
46.15983132960127
 30
0.0
  0
VERTEX
  5
123
330
105
100
AcDbEntity
  8
Ebene 2
370
     0
100
AcDbVertex
100
AcDb2dVertex
 10
161.3811258446299
 20
39.56246912310464
 30
0.0
  0
VERTEX
  5
124
330
105
100
AcDbEntity
  8
Ebene 2
370
     0
100
AcDbVertex
100
AcDb2dVertex
 10
164.7400961586426
 20
36.20384331886779
 30
0.0
  0
VERTEX
  5
125
330
105
100
AcDbEntity
  8
Ebene 2
370
     0
100
AcDbVertex
100
AcDb2dVertex
 10
168.0987219628794
 20
39.56246912310464
 30
0.0
  0
VERTEX
  5
126
330
105
100
AcDbEntity
  8
Ebene 2
370
     0
100
AcDbVertex
100
AcDb2dVertex
 10
174.6960841693761
 20
46.15983132960127
 30
0.0
  0
VERTEX
  5
127
330
105
100
AcDbEntity
  8
Ebene 2
370
     0
100
AcDbVertex
100
AcDb2dVertex
 10
181.2934463758727
 20
39.56246912310464
 30
0.0
  0
VERTEX
  5
128
330
105
100
AcDbEntity
  8
Ebene 2
370
     0
100
AcDbVertex
100
AcDb2dVertex
 10
184.6524166898853
 20
36.2031542993162
 30
0.0
  0
VERTEX
  5
129
330
105
100
AcDbEntity
  8
Ebene 2
370
     0
100
AcDbVertex
100
AcDb2dVertex
 10
188.011387003898
 20
39.56246912310464
 30
0.0
  0
VERTEX
  5
12A
330
105
100
AcDbEntity
  8
Ebene 2
370
     0
100
AcDbVertex
100
AcDb2dVertex
 10
194.6087492103946
 20
46.15983132960127
 30
0.0
  0
VERTEX
  5
12B
330
105
100
AcDbEntity
  8
Ebene 2
370
     0
100
AcDbVertex
100
AcDb2dVertex
 10
200.0010162211563
 20
40.76687529928805
 30
0.0
  0
VERTEX
  5
12C
330
105
100
AcDbEntity
  8
Ebene 2
370
     0
100
AcDbVertex
100
AcDb2dVertex
 10
200.0010162211563
 20
47.48516043708914
 30
0.0
  0
VERTEX
  5
12D
330
105
100
AcDbEntity
  8
Ebene 2
370
     0
100
AcDbVertex
100
AcDb2dVertex
 10
194.6087492103946
 20
52.87708293807498
 30
0.0
  0
VERTEX
  5
12E
330
105
100
AcDbEntity
  8
Ebene 2
370
     0
100
AcDbVertex
100
AcDb2dVertex
 10
184.6524166898853
 20
42.92109492734149
 30
0.0
  0
VERTEX
  5
12F
330
105
100
AcDbEntity
  8
Ebene 2
370
     0
100
AcDbVertex
100
AcDb2dVertex
 10
174.6960841693761
 20
52.87777195762657
 30
0.0
  0
VERTEX
  5
130
330
105
100
AcDbEntity
  8
Ebene 2
370
     0
100
AcDbVertex
100
AcDb2dVertex
 10
164.7397516488668
 20
42.92109492734149
 30
0.0
  0
VERTEX
  5
131
330
105
100
AcDbEntity
  8
Ebene 2
370
     0
100
AcDbVertex
100
AcDb2dVertex
 10
154.7834191283575
 20
52.87777195762657
 30
0.0
  0
VERTEX
  5
132
330
105
100
AcDbEntity
  8
Ebene 2
370
     0
100
AcDbVertex
100
AcDb2dVertex
 10
144.827431117624
 20
42.92178394689309
 30
0.0
  0
VERTEX
  5
133
330
105
100
AcDbEntity
  8
Ebene 2
370
     0
100
AcDbVertex
100
AcDb2dVertex
 10
134.8710985971148
 20
52.87777195762657
 30
0.0
  0
VERTEX
  5
134
330
105
100
AcDbEntity
  8
Ebene 2
370
     0
100
AcDbVertex
100
AcDb2dVertex
 10
124.9147660766055
 20
42.92178394689309
 30
0.0
  0
VERTEX
  5
135
330
105
100
AcDbEntity
  8
Ebene 2
370
     0
100
AcDbVertex
100
AcDb2dVertex
 10
114.9584335560962
 20
52.87777195762657
 30
0.0
  0
VERTEX
  5
136
330
105
100
AcDbEntity
  8
Ebene 2
370
     0
100
AcDbVertex
100
AcDb2dVertex
 10
105.0024455453627
 20
42.92178394689309
 30
0.0
  0
VERTEX
  5
137
330
105
100
AcDbEntity
  8
Ebene 2
370
     0
100
AcDbVertex
100
AcDb2dVertex
 10
95.04576851507764
 20
52.87846097717816
 30
0.0
  0
VERTEX
  5
138
330
105
100
AcDbEntity
  8
Ebene 2
370
     0
100
AcDbVertex
100
AcDb2dVertex
 10
85.08960824945625
 20
42.92178394689309
 30
0.0
  0
VERTEX
  5
139
330
105
100
AcDbEntity
  8
Ebene 2
370
     0
100
AcDbVertex
100
AcDb2dVertex
 10
75.13310347405907
 20
52.87846097717816
 30
0.0
  0
VERTEX
  5
13A
330
105
100
AcDbEntity
  8
Ebene 2
370
     0
100
AcDbVertex
100
AcDb2dVertex
 10
65.17694320843769
 20
42.92247296644468
 30
0.0
  0
VERTEX
  5
13B
330
105
100
AcDbEntity
  8
Ebene 2
370
     0
100
AcDbVertex
100
AcDb2dVertex
 10
55.22061068792841
 20
52.87846097717816
 30
0.0
  0
VERTEX
  5
13C
330
105
100
AcDbEntity
  8
Ebene 2
370
     0
100
AcDbVertex
100
AcDb2dVertex
 10
45.26445042230704
 20
42.92247296644468
 30
0.0
  0
VERTEX
  5
13D
330
105
100
AcDbEntity
  8
Ebene 2
370
     0
100
AcDbVertex
100
AcDb2dVertex
 10
35.30794564690986
 20
52.87846097717816
 30
0.0
  0
VERTEX
  5
13E
330
105
100
AcDbEntity
  8
Ebene 2
370
     0
100
AcDbVertex
100
AcDb2dVertex
 10
25.35178538128847
 20
42.92247296644468
 30
0.0
  0
VERTEX
  5
13F
330
105
100
AcDbEntity
  8
Ebene 2
370
     0
100
AcDbVertex
100
AcDb2dVertex
 10
15.3952806058913
 20
52.87914999672975
 30
0.0
  0
VERTEX
  5
140
330
105
100
AcDbEntity
  8
Ebene 2
370
     0
100
AcDbVertex
100
AcDb2dVertex
 10
10.00077428158698
 20
47.48412690776175
 30
0.0
  0
VERTEX
  5
141
330
105
100
AcDbEntity
  8
Ebene 2
370
     0
100
AcDbVertex
100
AcDb2dVertex
 10
10.00077428158698
 20
40.76653078951225
 30
0.0
  0
VERTEX
  5
142
330
105
100
AcDbEntity
  8
Ebene 2
370
     0
100
AcDbVertex
100
AcDb2dVertex
 10
15.39545286077919
 20
46.16120936870446
 30
0.0
  0
SEQEND
  5
143
330
105
100
AcDbEntity
  8
Ebene 2
370
     0
  0
POLYLINE
  5
144
330
1F
100
AcDbEntity
  8
Ebene 2
370
     0
100
AcDb2dPolyline
 66
     1
 10
0.0
 20
0.0
 30
0.0
  0
VERTEX
  5
145
330
144
100
AcDbEntity
  8
Ebene 2
370
     0
100
AcDbVertex
100
AcDb2dVertex
 10
152.2130316911423
 20
10.00042977181119
 30
0.0
  0
VERTEX
  5
146
330
144
100
AcDbEntity
  8
Ebene 2
370
     0
100
AcDbVertex
100
AcDb2dVertex
 10
157.3544955851243
 20
10.00042977181119
 30
0.0
  0
VERTEX
  5
147
330
144
100
AcDbEntity
  8
Ebene 2
370
     0
100
AcDbVertex
100
AcDb2dVertex
 10
154.7837636381333
 20
12.5711617188022
 30
0.0
  0
VERTEX
  5
148
330
144
100
AcDbEntity
  8
Ebene 2
370
     0
100
AcDbVertex
100
AcDb2dVertex
 10
152.2130316911423
 20
10.00042977181119
 30
0.0
  0
SEQEND
  5
149
330
144
100
AcDbEntity
  8
Ebene 2
370
     0
  0
POLYLINE
  5
14A
330
1F
100
AcDbEntity
  8
Ebene 2
370
     0
100
AcDb2dPolyline
 66
     1
 10
0.0
 20
0.0
 30
0.0
  0
VERTEX
  5
14B
330
14A
100
AcDbEntity
  8
Ebene 2
370
     0
100
AcDbVertex
100
AcDb2dVertex
 10
15.39562511566709
 20
32.72532811265388
 30
0.0
  0
VERTEX
  5
14C
330
14A
100
AcDbEntity
  8
Ebene 2
370
     0
100
AcDbVertex
100
AcDb2dVertex
 10
21.99298732216372
 20
26.12796590615724
 30
0.0
  0
VERTEX
  5
14D
330
14A
100
AcDbEntity
  8
Ebene 2
370
     0
100
AcDbVertex
100
AcDb2dVertex
 10
25.35195763617637
 20
22.76934010192039
 30
0.0
  0
VERTEX
  5
14E
330
14A
100
AcDbEntity
  8
Ebene 2
370
     0
100
AcDbVertex
100
AcDb2dVertex
 10
28.71075569530112
 20
26.12796590615724
 30
0.0
  0
VERTEX
  5
14F
330
14A
100
AcDbEntity
  8
Ebene 2
370
     0
100
AcDbVertex
100
AcDb2dVertex
 10
35.30811790179775
 20
32.72532811265388
 30
0.0
  0
VERTEX
  5
150
330
14A
100
AcDbEntity
  8
Ebene 2
370
     0
100
AcDbVertex
100
AcDb2dVertex
 10
41.90548010829438
 20
26.12796590615724
 30
0.0
  0
VERTEX
  5
151
330
14A
100
AcDbEntity
  8
Ebene 2
370
     0
100
AcDbVertex
100
AcDb2dVertex
 10
45.26445042230704
 20
22.7689955921446
 30
0.0
  0
VERTEX
  5
152
330
14A
100
AcDbEntity
  8
Ebene 2
370
     0
100
AcDbVertex
100
AcDb2dVertex
 10
48.62342073631968
 20
26.12796590615724
 30
0.0
  0
VERTEX
  5
153
330
14A
100
AcDbEntity
  8
Ebene 2
370
     0
100
AcDbVertex
100
AcDb2dVertex
 10
55.22078294281631
 20
32.72532811265388
 30
0.0
  0
VERTEX
  5
154
330
14A
100
AcDbEntity
  8
Ebene 2
370
     0
100
AcDbVertex
100
AcDb2dVertex
 10
61.81814514931295
 20
26.12796590615724
 30
0.0
  0
VERTEX
  5
155
330
14A
100
AcDbEntity
  8
Ebene 2
370
     0
100
AcDbVertex
100
AcDb2dVertex
 10
65.17711546332559
 20
22.7689955921446
 30
0.0
  0
VERTEX
  5
156
330
14A
100
AcDbEntity
  8
Ebene 2
370
     0
100
AcDbVertex
100
AcDb2dVertex
 10
68.53591352245034
 20
26.12727688660565
 30
0.0
  0
VERTEX
  5
157
330
14A
100
AcDbEntity
  8
Ebene 2
370
     0
100
AcDbVertex
100
AcDb2dVertex
 10
75.13327572894697
 20
32.72498360287808
 30
0.0
  0
VERTEX
  5
158
330
14A
100
AcDbEntity
  8
Ebene 2
370
     0
100
AcDbVertex
100
AcDb2dVertex
 10
81.73081019033151
 20
26.12727688660565
 30
0.0
  0
VERTEX
  5
159
330
14A
100
AcDbEntity
  8
Ebene 2
370
     0
100
AcDbVertex
100
AcDb2dVertex
 10
85.08960824945625
 20
22.7689955921446
 30
0.0
  0
VERTEX
  5
15A
330
14A
100
AcDbEntity
  8
Ebene 2
370
     0
100
AcDbVertex
100
AcDb2dVertex
 10
88.4482340536931
 20
26.12727688660565
 30
0.0
  0
VERTEX
  5
15B
330
14A
100
AcDbEntity
  8
Ebene 2
370
     0
100
AcDbVertex
100
AcDb2dVertex
 10
95.04576851507764
 20
32.72498360287808
 30
0.0
  0
VERTEX
  5
15C
330
14A
100
AcDbEntity
  8
Ebene 2
370
     0
100
AcDbVertex
100
AcDb2dVertex
 10
101.6431307215743
 20
26.12727688660565
 30
0.0
  0
VERTEX
  5
15D
330
14A
100
AcDbEntity
  8
Ebene 2
370
     0
100
AcDbVertex
100
AcDb2dVertex
 10
105.0024455453627
 20
22.7689955921446
 30
0.0
  0
VERTEX
  5
15E
330
14A
100
AcDbEntity
  8
Ebene 2
370
     0
100
AcDbVertex
100
AcDb2dVertex
 10
108.3610713495996
 20
26.12727688660565
 30
0.0
  0
VERTEX
  5
15F
330
14A
100
AcDbEntity
  8
Ebene 2
370
     0
100
AcDbVertex
100
AcDb2dVertex
 10
114.9584335560962
 20
32.72498360287808
 30
0.0
  0
VERTEX
  5
160
330
14A
100
AcDbEntity
  8
Ebene 2
370
     0
100
AcDbVertex
100
AcDb2dVertex
 10
121.5557957625928
 20
26.12727688660565
 30
0.0
  0
VERTEX
  5
161
330
14A
100
AcDbEntity
  8
Ebene 2
370
     0
100
AcDbVertex
100
AcDb2dVertex
 10
124.9151105863813
 20
22.768306572593
 30
0.0
  0
VERTEX
  5
162
330
14A
100
AcDbEntity
  8
Ebene 2
370
     0
100
AcDbVertex
100
AcDb2dVertex
 10
128.2737363906181
 20
26.12727688660565
 30
0.0
  0
VERTEX
  5
163
330
14A
100
AcDbEntity
  8
Ebene 2
370
     0
100
AcDbVertex
100
AcDb2dVertex
 10
134.8710985971148
 20
32.72498360287808
 30
0.0
  0
VERTEX
  5
164
330
14A
100
AcDbEntity
  8
Ebene 2
370
     0
100
AcDbVertex
100
AcDb2dVertex
 10
141.4684608036114
 20
26.12693237682985
 30
0.0
  0
VERTEX
  5
165
330
14A
100
AcDbEntity
  8
Ebene 2
370
     0
100
AcDbVertex
100
AcDb2dVertex
 10
144.827431117624
 20
22.768306572593
 30
0.0
  0
VERTEX
  5
166
330
14A
100
AcDbEntity
  8
Ebene 2
370
     0
100
AcDbVertex
100
AcDb2dVertex
 10
148.1864014316367
 20
26.12693237682985
 30
0.0
  0
VERTEX
  5
167
330
14A
100
AcDbEntity
  8
Ebene 2
370
     0
100
AcDbVertex
100
AcDb2dVertex
 10
154.7837636381333
 20
32.72429458332649
 30
0.0
  0
VERTEX
  5
168
330
14A
100
AcDbEntity
  8
Ebene 2
370
     0
100
AcDbVertex
100
AcDb2dVertex
 10
161.3811258446299
 20
26.12693237682985
 30
0.0
  0
VERTEX
  5
169
330
14A
100
AcDbEntity
  8
Ebene 2
370
     0
100
AcDbVertex
100
AcDb2dVertex
 10
164.7400961586426
 20
22.768306572593
 30
0.0
  0
VERTEX
  5
16A
330
14A
100
AcDbEntity
  8
Ebene 2
370
     0
100
AcDbVertex
100
AcDb2dVertex
 10
168.0990664726552
 20
26.12693237682985
 30
0.0
  0
VERTEX
  5
16B
330
14A
100
AcDbEntity
  8
Ebene 2
370
     0
100
AcDbVertex
100
AcDb2dVertex
 10
174.6964286791519
 20
32.72429458332649
 30
0.0
  0
VERTEX
  5
16C
330
14A
100
AcDbEntity
  8
Ebene 2
370
     0
100
AcDbVertex
100
AcDb2dVertex
 10
181.2937908856485
 20
26.12693237682985
 30
0.0
  0
VERTEX
  5
16D
330
14A
100
AcDbEntity
  8
Ebene 2
370
     0
100
AcDbVertex
100
AcDb2dVertex
 10
184.6527611996611
 20
22.76761755304141
 30
0.0
  0
VERTEX
  5
16E
330
14A
100
AcDbEntity
  8
Ebene 2
370
     0
100
AcDbVertex
100
AcDb2dVertex
 10
188.011387003898
 20
26.12693237682985
 30
0.0
  0
VERTEX
  5
16F
330
14A
100
AcDbEntity
  8
Ebene 2
370
     0
100
AcDbVertex
100
AcDb2dVertex
 10
194.6090937201704
 20
32.72429458332649
 30
0.0
  0
VERTEX
  5
170
330
14A
100
AcDbEntity
  8
Ebene 2
370
     0
100
AcDbVertex
100
AcDb2dVertex
 10
200.0010162211563
 20
27.33202757256485
 30
0.0
  0
VERTEX
  5
171
330
14A
100
AcDbEntity
  8
Ebene 2
370
     0
100
AcDbVertex
100
AcDb2dVertex
 10
200.0010162211563
 20
34.04927918103855
 30
0.0
  0
VERTEX
  5
172
330
14A
100
AcDbEntity
  8
Ebene 2
370
     0
100
AcDbVertex
100
AcDb2dVertex
 10
194.6087492103946
 20
39.44189070157599
 30
0.0
  0
VERTEX
  5
173
330
14A
100
AcDbEntity
  8
Ebene 2
370
     0
100
AcDbVertex
100
AcDb2dVertex
 10
184.6527611996611
 20
29.48521367129091
 30
0.0
  0
VERTEX
  5
174
330
14A
100
AcDbEntity
  8
Ebene 2
370
     0
100
AcDbVertex
100
AcDb2dVertex
 10
174.6964286791519
 20
39.44189070157599
 30
0.0
  0
VERTEX
  5
175
330
14A
100
AcDbEntity
  8
Ebene 2
370
     0
100
AcDbVertex
100
AcDb2dVertex
 10
164.7400961586426
 20
29.4859026908425
 30
0.0
  0
VERTEX
  5
176
330
14A
100
AcDbEntity
  8
Ebene 2
370
     0
100
AcDbVertex
100
AcDb2dVertex
 10
154.7837636381333
 20
39.44189070157599
 30
0.0
  0
VERTEX
  5
177
330
14A
100
AcDbEntity
  8
Ebene 2
370
     0
100
AcDbVertex
100
AcDb2dVertex
 10
144.827431117624
 20
29.4859026908425
 30
0.0
  0
VERTEX
  5
178
330
14A
100
AcDbEntity
  8
Ebene 2
370
     0
100
AcDbVertex
100
AcDb2dVertex
 10
134.8710985971148
 20
39.44189070157599
 30
0.0
  0
VERTEX
  5
179
330
14A
100
AcDbEntity
  8
Ebene 2
370
     0
100
AcDbVertex
100
AcDb2dVertex
 10
124.9147660766055
 20
29.4859026908425
 30
0.0
  0
VERTEX
  5
17A
330
14A
100
AcDbEntity
  8
Ebene 2
370
     0
100
AcDbVertex
100
AcDb2dVertex
 10
114.9584335560962
 20
39.44257972112757
 30
0.0
  0
VERTEX
  5
17B
330
14A
100
AcDbEntity
  8
Ebene 2
370
     0
100
AcDbVertex
100
AcDb2dVertex
 10
105.0024455453627
 20
29.4859026908425
 30
0.0
  0
VERTEX
  5
17C
330
14A
100
AcDbEntity
  8
Ebene 2
370
     0
100
AcDbVertex
100
AcDb2dVertex
 10
95.04576851507764
 20
39.44257972112757
 30
0.0
  0
VERTEX
  5
17D
330
14A
100
AcDbEntity
  8
Ebene 2
370
     0
100
AcDbVertex
100
AcDb2dVertex
 10
85.08960824945625
 20
29.48659171039409
 30
0.0
  0
VERTEX
  5
17E
330
14A
100
AcDbEntity
  8
Ebene 2
370
     0
100
AcDbVertex
100
AcDb2dVertex
 10
75.13327572894697
 20
39.44257972112757
 30
0.0
  0
VERTEX
  5
17F
330
14A
100
AcDbEntity
  8
Ebene 2
370
     0
100
AcDbVertex
100
AcDb2dVertex
 10
65.17711546332559
 20
29.48659171039409
 30
0.0
  0
VERTEX
  5
180
330
14A
100
AcDbEntity
  8
Ebene 2
370
     0
100
AcDbVertex
100
AcDb2dVertex
 10
55.22061068792841
 20
39.44257972112757
 30
0.0
  0
VERTEX
  5
181
330
14A
100
AcDbEntity
  8
Ebene 2
370
     0
100
AcDbVertex
100
AcDb2dVertex
 10
45.26445042230704
 20
29.48659171039409
 30
0.0
  0
VERTEX
  5
182
330
14A
100
AcDbEntity
  8
Ebene 2
370
     0
100
AcDbVertex
100
AcDb2dVertex
 10
35.30811790179775
 20
39.44326874067917
 30
0.0
  0
VERTEX
  5
183
330
14A
100
AcDbEntity
  8
Ebene 2
370
     0
100
AcDbVertex
100
AcDb2dVertex
 10
25.35178538128847
 20
29.48659171039409
 30
0.0
  0
VERTEX
  5
184
330
14A
100
AcDbEntity
  8
Ebene 2
370
     0
100
AcDbVertex
100
AcDb2dVertex
 10
15.39545286077919
 20
39.44326874067917
 30
0.0
  0
VERTEX
  5
185
330
14A
100
AcDbEntity
  8
Ebene 2
370
     0
100
AcDbVertex
100
AcDb2dVertex
 10
10.00077428158698
 20
34.04859016148696
 30
0.0
  0
VERTEX
  5
186
330
14A
100
AcDbEntity
  8
Ebene 2
370
     0
100
AcDbVertex
100
AcDb2dVertex
 10
10.00077428158698
 20
27.33099404323746
 30
0.0
  0
VERTEX
  5
187
330
14A
100
AcDbEntity
  8
Ebene 2
370
     0
100
AcDbVertex
100
AcDb2dVertex
 10
15.39562511566709
 20
32.72532811265388
 30
0.0
  0
SEQEND
  5
188
330
14A
100
AcDbEntity
  8
Ebene 2
370
     0
  0
POLYLINE
  5
189
330
1F
100
AcDbEntity
  8
Ebene 2
370
     0
100
AcDb2dPolyline
 66
     1
 10
0.0
 20
0.0
 30
0.0
  0
VERTEX
  5
18A
330
189
100
AcDbEntity
  8
Ebene 2
370
     0
100
AcDbVertex
100
AcDb2dVertex
 10
15.3949360961155
 20
99.90335635380362
 30
0.0
  0
VERTEX
  5
18B
330
189
100
AcDbEntity
  8
Ebene 2
370
     0
100
AcDbVertex
100
AcDb2dVertex
 10
21.99247055750003
 20
93.30599414730698
 30
0.0
  0
VERTEX
  5
18C
330
189
100
AcDbEntity
  8
Ebene 2
370
     0
100
AcDbVertex
100
AcDb2dVertex
 10
25.35144087151268
 20
89.94667932351854
 30
0.0
  0
VERTEX
  5
18D
330
189
100
AcDbEntity
  8
Ebene 2
370
     0
100
AcDbVertex
100
AcDb2dVertex
 10
28.71023893063742
 20
93.30530512775539
 30
0.0
  0
VERTEX
  5
18E
330
189
100
AcDbEntity
  8
Ebene 2
370
     0
100
AcDbVertex
100
AcDb2dVertex
 10
35.30760113713406
 20
99.90266733425203
 30
0.0
  0
VERTEX
  5
18F
330
189
100
AcDbEntity
  8
Ebene 2
370
     0
100
AcDbVertex
100
AcDb2dVertex
 10
41.90496334363069
 20
93.30530512775539
 30
0.0
  0
VERTEX
  5
190
330
189
100
AcDbEntity
  8
Ebene 2
370
     0
100
AcDbVertex
100
AcDb2dVertex
 10
45.26393365764334
 20
89.94667932351854
 30
0.0
  0
VERTEX
  5
191
330
189
100
AcDbEntity
  8
Ebene 2
370
     0
100
AcDbVertex
100
AcDb2dVertex
 10
48.62290397165599
 20
93.30530512775539
 30
0.0
  0
VERTEX
  5
192
330
189
100
AcDbEntity
  8
Ebene 2
370
     0
100
AcDbVertex
100
AcDb2dVertex
 10
55.22009392326472
 20
99.90266733425203
 30
0.0
  0
VERTEX
  5
193
330
189
100
AcDbEntity
  8
Ebene 2
370
     0
100
AcDbVertex
100
AcDb2dVertex
 10
61.81762838464925
 20
93.30530512775539
 30
0.0
  0
VERTEX
  5
194
330
189
100
AcDbEntity
  8
Ebene 2
370
     0
100
AcDbVertex
100
AcDb2dVertex
 10
65.17659869866189
 20
89.94667932351854
 30
0.0
  0
VERTEX
  5
195
330
189
100
AcDbEntity
  8
Ebene 2
370
     0
100
AcDbVertex
100
AcDb2dVertex
 10
68.53539675778664
 20
93.30530512775539
 30
0.0
  0
VERTEX
  5
196
330
189
100
AcDbEntity
  8
Ebene 2
370
     0
100
AcDbVertex
100
AcDb2dVertex
 10
75.13275896428328
 20
99.90266733425203
 30
0.0
  0
VERTEX
  5
197
330
189
100
AcDbEntity
  8
Ebene 2
370
     0
100
AcDbVertex
100
AcDb2dVertex
 10
81.73012117077991
 20
93.30530512775539
 30
0.0
  0
VERTEX
  5
198
330
189
100
AcDbEntity
  8
Ebene 2
370
     0
100
AcDbVertex
100
AcDb2dVertex
 10
85.08909148479256
 20
89.94599030396695
 30
0.0
  0
VERTEX
  5
199
330
189
100
AcDbEntity
  8
Ebene 2
370
     0
100
AcDbVertex
100
AcDb2dVertex
 10
88.4480617988052
 20
93.30530512775539
 30
0.0
  0
VERTEX
  5
19A
330
189
100
AcDbEntity
  8
Ebene 2
370
     0
100
AcDbVertex
100
AcDb2dVertex
 10
95.04507949552604
 20
99.90266733425203
 30
0.0
  0
VERTEX
  5
19B
330
189
100
AcDbEntity
  8
Ebene 2
370
     0
100
AcDbVertex
100
AcDb2dVertex
 10
101.6427862117985
 20
93.30530512775539
 30
0.0
  0
VERTEX
  5
19C
330
189
100
AcDbEntity
  8
Ebene 2
370
     0
100
AcDbVertex
100
AcDb2dVertex
 10
105.0017565258111
 20
89.94599030396695
 30
0.0
  0
VERTEX
  5
19D
330
189
100
AcDbEntity
  8
Ebene 2
370
     0
100
AcDbVertex
100
AcDb2dVertex
 10
108.3607268398238
 20
93.30530512775539
 30
0.0
  0
VERTEX
  5
19E
330
189
100
AcDbEntity
  8
Ebene 2
370
     0
100
AcDbVertex
100
AcDb2dVertex
 10
114.9577445365446
 20
99.90197831470043
 30
0.0
  0
VERTEX
  5
19F
330
189
100
AcDbEntity
  8
Ebene 2
370
     0
100
AcDbVertex
100
AcDb2dVertex
 10
121.555451252817
 20
93.3046161082038
 30
0.0
  0
VERTEX
  5
1A0
330
189
100
AcDbEntity
  8
Ebene 2
370
     0
100
AcDbVertex
100
AcDb2dVertex
 10
124.9144215668297
 20
89.94599030396695
 30
0.0
  0
VERTEX
  5
1A1
330
189
100
AcDbEntity
  8
Ebene 2
370
     0
100
AcDbVertex
100
AcDb2dVertex
 10
128.2730473710665
 20
93.3046161082038
 30
0.0
  0
VERTEX
  5
1A2
330
189
100
AcDbEntity
  8
Ebene 2
370
     0
100
AcDbVertex
100
AcDb2dVertex
 10
134.8704095775632
 20
99.90197831470043
 30
0.0
  0
VERTEX
  5
1A3
330
189
100
AcDbEntity
  8
Ebene 2
370
     0
100
AcDbVertex
100
AcDb2dVertex
 10
141.4677717840598
 20
93.3046161082038
 30
0.0
  0
VERTEX
  5
1A4
330
189
100
AcDbEntity
  8
Ebene 2
370
     0
100
AcDbVertex
100
AcDb2dVertex
 10
144.8270866078482
 20
89.94599030396695
 30
0.0
  0
VERTEX
  5
1A5
330
189
100
AcDbEntity
  8
Ebene 2
370
     0
100
AcDbVertex
100
AcDb2dVertex
 10
148.1857124120851
 20
93.3046161082038
 30
0.0
  0
VERTEX
  5
1A6
330
189
100
AcDbEntity
  8
Ebene 2
370
     0
100
AcDbVertex
100
AcDb2dVertex
 10
154.7830746185817
 20
99.90197831470043
 30
0.0
  0
VERTEX
  5
1A7
330
189
100
AcDbEntity
  8
Ebene 2
370
     0
100
AcDbVertex
100
AcDb2dVertex
 10
161.3804368250784
 20
93.3046161082038
 30
0.0
  0
VERTEX
  5
1A8
330
189
100
AcDbEntity
  8
Ebene 2
370
     0
100
AcDbVertex
100
AcDb2dVertex
 10
164.739407139091
 20
89.94530128441535
 30
0.0
  0
VERTEX
  5
1A9
330
189
100
AcDbEntity
  8
Ebene 2
370
     0
100
AcDbVertex
100
AcDb2dVertex
 10
168.0983774531036
 20
93.3046161082038
 30
0.0
  0
VERTEX
  5
1AA
330
189
100
AcDbEntity
  8
Ebene 2
370
     0
100
AcDbVertex
100
AcDb2dVertex
 10
174.6957396596003
 20
99.90197831470043
 30
0.0
  0
VERTEX
  5
1AB
330
189
100
AcDbEntity
  8
Ebene 2
370
     0
100
AcDbVertex
100
AcDb2dVertex
 10
181.2931018660969
 20
93.3046161082038
 30
0.0
  0
VERTEX
  5
1AC
330
189
100
AcDbEntity
  8
Ebene 2
370
     0
100
AcDbVertex
100
AcDb2dVertex
 10
184.6520721801096
 20
89.94530128441535
 30
0.0
  0
VERTEX
  5
1AD
330
189
100
AcDbEntity
  8
Ebene 2
370
     0
100
AcDbVertex
100
AcDb2dVertex
 10
188.0110424941222
 20
93.3046161082038
 30
0.0
  0
VERTEX
  5
1AE
330
189
100
AcDbEntity
  8
Ebene 2
370
     0
100
AcDbVertex
100
AcDb2dVertex
 10
194.6084047006188
 20
99.90197831470043
 30
0.0
  0
VERTEX
  5
1AF
330
189
100
AcDbEntity
  8
Ebene 2
370
     0
100
AcDbVertex
100
AcDb2dVertex
 10
200.0010162211563
 20
94.509366794163
 30
0.0
  0
VERTEX
  5
1B0
330
189
100
AcDbEntity
  8
Ebene 2
370
     0
100
AcDbVertex
100
AcDb2dVertex
 10
200.0010162211563
 20
101.2269629124125
 30
0.0
  0
VERTEX
  5
1B1
330
189
100
AcDbEntity
  8
Ebene 2
370
     0
100
AcDbVertex
100
AcDb2dVertex
 10
194.6084047006188
 20
106.6197466878378
 30
0.0
  0
VERTEX
  5
1B2
330
189
100
AcDbEntity
  8
Ebene 2
370
     0
100
AcDbVertex
100
AcDb2dVertex
 10
184.6520721801096
 20
96.66324191244065
 30
0.0
  0
VERTEX
  5
1B3
330
189
100
AcDbEntity
  8
Ebene 2
370
     0
100
AcDbVertex
100
AcDb2dVertex
 10
174.6957396596003
 20
106.6197466878378
 30
0.0
  0
VERTEX
  5
1B4
330
189
100
AcDbEntity
  8
Ebene 2
370
     0
100
AcDbVertex
100
AcDb2dVertex
 10
164.739407139091
 20
96.66324191244065
 30
0.0
  0
VERTEX
  5
1B5
330
189
100
AcDbEntity
  8
Ebene 2
370
     0
100
AcDbVertex
100
AcDb2dVertex
 10
154.7830746185817
 20
106.6197466878378
 30
0.0
  0
VERTEX
  5
1B6
330
189
100
AcDbEntity
  8
Ebene 2
370
     0
100
AcDbVertex
100
AcDb2dVertex
 10
144.8270866078482
 20
96.66393093199224
 30
0.0
  0
VERTEX
  5
1B7
330
189
100
AcDbEntity
  8
Ebene 2
370
     0
100
AcDbVertex
100
AcDb2dVertex
 10
134.8704095775632
 20
106.6197466878378
 30
0.0
  0
VERTEX
  5
1B8
330
189
100
AcDbEntity
  8
Ebene 2
370
     0
100
AcDbVertex
100
AcDb2dVertex
 10
124.9144215668297
 20
96.66393093199224
 30
0.0
  0
VERTEX
  5
1B9
330
189
100
AcDbEntity
  8
Ebene 2
370
     0
100
AcDbVertex
100
AcDb2dVertex
 10
114.9577445365446
 20
106.6197466878378
 30
0.0
  0
VERTEX
  5
1BA
330
189
100
AcDbEntity
  8
Ebene 2
370
     0
100
AcDbVertex
100
AcDb2dVertex
 10
105.0017565258111
 20
96.66393093199224
 30
0.0
  0
VERTEX
  5
1BB
330
189
100
AcDbEntity
  8
Ebene 2
370
     0
100
AcDbVertex
100
AcDb2dVertex
 10
95.04507949552604
 20
106.6204357073894
 30
0.0
  0
VERTEX
  5
1BC
330
189
100
AcDbEntity
  8
Ebene 2
370
     0
100
AcDbVertex
100
AcDb2dVertex
 10
85.08909148479256
 20
96.66393093199224
 30
0.0
  0
VERTEX
  5
1BD
330
189
100
AcDbEntity
  8
Ebene 2
370
     0
100
AcDbVertex
100
AcDb2dVertex
 10
75.13275896428328
 20
106.6204357073894
 30
0.0
  0
VERTEX
  5
1BE
330
189
100
AcDbEntity
  8
Ebene 2
370
     0
100
AcDbVertex
100
AcDb2dVertex
 10
65.176426443774
 20
96.66393093199224
 30
0.0
  0
VERTEX
  5
1BF
330
189
100
AcDbEntity
  8
Ebene 2
370
     0
100
AcDbVertex
100
AcDb2dVertex
 10
55.22009392326472
 20
106.6204357073894
 30
0.0
  0
VERTEX
  5
1C0
330
189
100
AcDbEntity
  8
Ebene 2
370
     0
100
AcDbVertex
100
AcDb2dVertex
 10
45.26393365764334
 20
96.66461995154383
 30
0.0
  0
VERTEX
  5
1C1
330
189
100
AcDbEntity
  8
Ebene 2
370
     0
100
AcDbVertex
100
AcDb2dVertex
 10
35.30760113713406
 20
106.6204357073894
 30
0.0
  0
VERTEX
  5
1C2
330
189
100
AcDbEntity
  8
Ebene 2
370
     0
100
AcDbVertex
100
AcDb2dVertex
 10
25.35126861662478
 20
96.66461995154383
 30
0.0
  0
VERTEX
  5
1C3
330
189
100
AcDbEntity
  8
Ebene 2
370
     0
100
AcDbVertex
100
AcDb2dVertex
 10
15.3949360961155
 20
106.621124726941
 30
0.0
  0
VERTEX
  5
1C4
330
189
100
AcDbEntity
  8
Ebene 2
370
     0
100
AcDbVertex
100
AcDb2dVertex
 10
10.00077428158698
 20
101.2269629124125
 30
0.0
  0
VERTEX
  5
1C5
330
189
100
AcDbEntity
  8
Ebene 2
370
     0
100
AcDbVertex
100
AcDb2dVertex
 10
10.00077428158698
 20
94.5090222843872
 30
0.0
  0
VERTEX
  5
1C6
330
189
100
AcDbEntity
  8
Ebene 2
370
     0
100
AcDbVertex
100
AcDb2dVertex
 10
15.3949360961155
 20
99.90335635380362
 30
0.0
  0
SEQEND
  5
1C7
330
189
100
AcDbEntity
  8
Ebene 2
370
     0
  0
POLYLINE
  5
1C8
330
1F
100
AcDbEntity
  8
Ebene 2
370
     0
100
AcDb2dPolyline
 66
     1
 10
0.0
 20
0.0
 30
0.0
  0
VERTEX
  5
1C9
330
1C8
100
AcDbEntity
  8
Ebene 2
370
     0
100
AcDbVertex
100
AcDb2dVertex
 10
184.6520721801096
 20
177.2769791547531
 30
0.0
  0
VERTEX
  5
1CA
330
1C8
100
AcDbEntity
  8
Ebene 2
370
     0
100
AcDbVertex
100
AcDb2dVertex
 10
174.6957396596003
 20
187.2333116752623
 30
0.0
  0
VERTEX
  5
1CB
330
1C8
100
AcDbEntity
  8
Ebene 2
370
     0
100
AcDbVertex
100
AcDb2dVertex
 10
164.739407139091
 20
177.2769791547531
 30
0.0
  0
VERTEX
  5
1CC
330
1C8
100
AcDbEntity
  8
Ebene 2
370
     0
100
AcDbVertex
100
AcDb2dVertex
 10
154.7830746185817
 20
187.2333116752623
 30
0.0
  0
VERTEX
  5
1CD
330
1C8
100
AcDbEntity
  8
Ebene 2
370
     0
100
AcDbVertex
100
AcDb2dVertex
 10
144.8263975882967
 20
177.2769791547531
 30
0.0
  0
VERTEX
  5
1CE
330
1C8
100
AcDbEntity
  8
Ebene 2
370
     0
100
AcDbVertex
100
AcDb2dVertex
 10
134.8700650677874
 20
187.2333116752623
 30
0.0
  0
VERTEX
  5
1CF
330
1C8
100
AcDbEntity
  8
Ebene 2
370
     0
100
AcDbVertex
100
AcDb2dVertex
 10
124.9137325472781
 20
177.2769791547531
 30
0.0
  0
VERTEX
  5
1D0
330
1C8
100
AcDbEntity
  8
Ebene 2
370
     0
100
AcDbVertex
100
AcDb2dVertex
 10
114.9574000267688
 20
187.2333116752623
 30
0.0
  0
VERTEX
  5
1D1
330
1C8
100
AcDbEntity
  8
Ebene 2
370
     0
100
AcDbVertex
100
AcDb2dVertex
 10
105.0010675062595
 20
177.2769791547531
 30
0.0
  0
VERTEX
  5
1D2
330
1C8
100
AcDbEntity
  8
Ebene 2
370
     0
100
AcDbVertex
100
AcDb2dVertex
 10
95.04439047597445
 20
187.2333116752623
 30
0.0
  0
VERTEX
  5
1D3
330
1C8
100
AcDbEntity
  8
Ebene 2
370
     0
100
AcDbVertex
100
AcDb2dVertex
 10
85.08840246524096
 20
177.2773236645289
 30
0.0
  0
VERTEX
  5
1D4
330
1C8
100
AcDbEntity
  8
Ebene 2
370
     0
100
AcDbVertex
100
AcDb2dVertex
 10
75.13189768984378
 20
187.2336561850381
 30
0.0
  0
VERTEX
  5
1D5
330
1C8
100
AcDbEntity
  8
Ebene 2
370
     0
100
AcDbVertex
100
AcDb2dVertex
 10
65.1757374242224
 20
177.2773236645289
 30
0.0
  0
VERTEX
  5
1D6
330
1C8
100
AcDbEntity
  8
Ebene 2
370
     0
100
AcDbVertex
100
AcDb2dVertex
 10
55.21923264882523
 20
187.2336561850381
 30
0.0
  0
VERTEX
  5
1D7
330
1C8
100
AcDbEntity
  8
Ebene 2
370
     0
100
AcDbVertex
100
AcDb2dVertex
 10
45.26324463809175
 20
177.2776681743047
 30
0.0
  0
VERTEX
  5
1D8
330
1C8
100
AcDbEntity
  8
Ebene 2
370
     0
100
AcDbVertex
100
AcDb2dVertex
 10
35.30673986269457
 20
187.233828439926
 30
0.0
  0
VERTEX
  5
1D9
330
1C8
100
AcDbEntity
  8
Ebene 2
370
     0
100
AcDbVertex
100
AcDb2dVertex
 10
25.35057959707319
 20
177.2776681743047
 30
0.0
  0
VERTEX
  5
1DA
330
1C8
100
AcDbEntity
  8
Ebene 2
370
     0
100
AcDbVertex
100
AcDb2dVertex
 10
15.39407482167601
 20
187.233828439926
 30
0.0
  0
VERTEX
  5
1DB
330
1C8
100
AcDbEntity
  8
Ebene 2
370
     0
100
AcDbVertex
100
AcDb2dVertex
 10
10.00077428158698
 20
181.840527899837
 30
0.0
  0
VERTEX
  5
1DC
330
1C8
100
AcDbEntity
  8
Ebene 2
370
     0
100
AcDbVertex
100
AcDb2dVertex
 10
10.00077428158698
 20
175.1229317815875
 30
0.0
  0
VERTEX
  5
1DD
330
1C8
100
AcDbEntity
  8
Ebene 2
370
     0
100
AcDbVertex
100
AcDb2dVertex
 10
15.39424707656391
 20
180.5164045765644
 30
0.0
  0
VERTEX
  5
1DE
330
1C8
100
AcDbEntity
  8
Ebene 2
370
     0
100
AcDbVertex
100
AcDb2dVertex
 10
21.99195379283634
 20
173.918697860292
 30
0.0
  0
VERTEX
  5
1DF
330
1C8
100
AcDbEntity
  8
Ebene 2
370
     0
100
AcDbVertex
100
AcDb2dVertex
 10
25.35057959707319
 20
170.5597275462794
 30
0.0
  0
VERTEX
  5
1E0
330
1C8
100
AcDbEntity
  8
Ebene 2
370
     0
100
AcDbVertex
100
AcDb2dVertex
 10
28.70954991108583
 20
173.918697860292
 30
0.0
  0
VERTEX
  5
1E1
330
1C8
100
AcDbEntity
  8
Ebene 2
370
     0
100
AcDbVertex
100
AcDb2dVertex
 10
35.30673986269457
 20
180.5160600667887
 30
0.0
  0
VERTEX
  5
1E2
330
1C8
100
AcDbEntity
  8
Ebene 2
370
     0
100
AcDbVertex
100
AcDb2dVertex
 10
41.904446578967
 20
173.918697860292
 30
0.0
  0
VERTEX
  5
1E3
330
1C8
100
AcDbEntity
  8
Ebene 2
370
     0
100
AcDbVertex
100
AcDb2dVertex
 10
45.26324463809175
 20
170.5597275462794
 30
0.0
  0
VERTEX
  5
1E4
330
1C8
100
AcDbEntity
  8
Ebene 2
370
     0
100
AcDbVertex
100
AcDb2dVertex
 10
48.62204269721649
 20
173.918697860292
 30
0.0
  0
VERTEX
  5
1E5
330
1C8
100
AcDbEntity
  8
Ebene 2
370
     0
100
AcDbVertex
100
AcDb2dVertex
 10
55.21940490371313
 20
180.5160600667887
 30
0.0
  0
VERTEX
  5
1E6
330
1C8
100
AcDbEntity
  8
Ebene 2
370
     0
100
AcDbVertex
100
AcDb2dVertex
 10
61.81693936509766
 20
173.9183533505162
 30
0.0
  0
VERTEX
  5
1E7
330
1C8
100
AcDbEntity
  8
Ebene 2
370
     0
100
AcDbVertex
100
AcDb2dVertex
 10
65.1757374242224
 20
170.5593830365036
 30
0.0
  0
VERTEX
  5
1E8
330
1C8
100
AcDbEntity
  8
Ebene 2
370
     0
100
AcDbVertex
100
AcDb2dVertex
 10
68.53470773823506
 20
173.9183533505162
 30
0.0
  0
VERTEX
  5
1E9
330
1C8
100
AcDbEntity
  8
Ebene 2
370
     0
100
AcDbVertex
100
AcDb2dVertex
 10
75.13189768984378
 20
180.5157155570129
 30
0.0
  0
VERTEX
  5
1EA
330
1C8
100
AcDbEntity
  8
Ebene 2
370
     0
100
AcDbVertex
100
AcDb2dVertex
 10
81.72943215122832
 20
173.9183533505162
 30
0.0
  0
VERTEX
  5
1EB
330
1C8
100
AcDbEntity
  8
Ebene 2
370
     0
100
AcDbVertex
100
AcDb2dVertex
 10
85.08840246524096
 20
170.5593830365036
 30
0.0
  0
VERTEX
  5
1EC
330
1C8
100
AcDbEntity
  8
Ebene 2
370
     0
100
AcDbVertex
100
AcDb2dVertex
 10
88.44737277925361
 20
173.9183533505162
 30
0.0
  0
VERTEX
  5
1ED
330
1C8
100
AcDbEntity
  8
Ebene 2
370
     0
100
AcDbVertex
100
AcDb2dVertex
 10
95.04439047597445
 20
180.5153710472371
 30
0.0
  0
VERTEX
  5
1EE
330
1C8
100
AcDbEntity
  8
Ebene 2
370
     0
100
AcDbVertex
100
AcDb2dVertex
 10
101.6420971922469
 20
173.9180088407404
 30
0.0
  0
VERTEX
  5
1EF
330
1C8
100
AcDbEntity
  8
Ebene 2
370
     0
100
AcDbVertex
100
AcDb2dVertex
 10
105.0010675062595
 20
170.5590385267278
 30
0.0
  0
VERTEX
  5
1F0
330
1C8
100
AcDbEntity
  8
Ebene 2
370
     0
100
AcDbVertex
100
AcDb2dVertex
 10
108.3596933104964
 20
173.9180088407404
 30
0.0
  0
VERTEX
  5
1F1
330
1C8
100
AcDbEntity
  8
Ebene 2
370
     0
100
AcDbVertex
100
AcDb2dVertex
 10
114.9574000267688
 20
180.5153710472371
 30
0.0
  0
VERTEX
  5
1F2
330
1C8
100
AcDbEntity
  8
Ebene 2
370
     0
100
AcDbVertex
100
AcDb2dVertex
 10
121.5547622332654
 20
173.9180088407404
 30
0.0
  0
VERTEX
  5
1F3
330
1C8
100
AcDbEntity
  8
Ebene 2
370
     0
100
AcDbVertex
100
AcDb2dVertex
 10
124.9137325472781
 20
170.5590385267278
 30
0.0
  0
VERTEX
  5
1F4
330
1C8
100
AcDbEntity
  8
Ebene 2
370
     0
100
AcDbVertex
100
AcDb2dVertex
 10
128.2727028612907
 20
173.9180088407404
 30
0.0
  0
VERTEX
  5
1F5
330
1C8
100
AcDbEntity
  8
Ebene 2
370
     0
100
AcDbVertex
100
AcDb2dVertex
 10
134.8700650677874
 20
180.5153710472371
 30
0.0
  0
VERTEX
  5
1F6
330
1C8
100
AcDbEntity
  8
Ebene 2
370
     0
100
AcDbVertex
100
AcDb2dVertex
 10
141.4677717840598
 20
173.9180088407404
 30
0.0
  0
VERTEX
  5
1F7
330
1C8
100
AcDbEntity
  8
Ebene 2
370
     0
100
AcDbVertex
100
AcDb2dVertex
 10
144.8263975882967
 20
170.5590385267278
 30
0.0
  0
VERTEX
  5
1F8
330
1C8
100
AcDbEntity
  8
Ebene 2
370
     0
100
AcDbVertex
100
AcDb2dVertex
 10
148.1853679023093
 20
173.9180088407404
 30
0.0
  0
VERTEX
  5
1F9
330
1C8
100
AcDbEntity
  8
Ebene 2
370
     0
100
AcDbVertex
100
AcDb2dVertex
 10
154.7830746185817
 20
180.5153710472371
 30
0.0
  0
VERTEX
  5
1FA
330
1C8
100
AcDbEntity
  8
Ebene 2
370
     0
100
AcDbVertex
100
AcDb2dVertex
 10
161.3804368250784
 20
173.9180088407404
 30
0.0
  0
VERTEX
  5
1FB
330
1C8
100
AcDbEntity
  8
Ebene 2
370
     0
100
AcDbVertex
100
AcDb2dVertex
 10
164.739407139091
 20
170.5590385267278
 30
0.0
  0
VERTEX
  5
1FC
330
1C8
100
AcDbEntity
  8
Ebene 2
370
     0
100
AcDbVertex
100
AcDb2dVertex
 10
168.0983774531036
 20
173.9180088407404
 30
0.0
  0
VERTEX
  5
1FD
330
1C8
100
AcDbEntity
  8
Ebene 2
370
     0
100
AcDbVertex
100
AcDb2dVertex
 10
174.6957396596003
 20
180.5153710472371
 30
0.0
  0
VERTEX
  5
1FE
330
1C8
100
AcDbEntity
  8
Ebene 2
370
     0
100
AcDbVertex
100
AcDb2dVertex
 10
181.2931018660969
 20
173.9180088407404
 30
0.0
  0
VERTEX
  5
1FF
330
1C8
100
AcDbEntity
  8
Ebene 2
370
     0
100
AcDbVertex
100
AcDb2dVertex
 10
184.6520721801096
 20
170.5590385267278
 30
0.0
  0
VERTEX
  5
200
330
1C8
100
AcDbEntity
  8
Ebene 2
370
     0
100
AcDbVertex
100
AcDb2dVertex
 10
188.0110424941222
 20
173.9180088407404
 30
0.0
  0
VERTEX
  5
201
330
1C8
100
AcDbEntity
  8
Ebene 2
370
     0
100
AcDbVertex
100
AcDb2dVertex
 10
194.6084047006188
 20
180.5153710472371
 30
0.0
  0
VERTEX
  5
202
330
1C8
100
AcDbEntity
  8
Ebene 2
370
     0
100
AcDbVertex
100
AcDb2dVertex
 10
200.0010162211563
 20
175.1227595266996
 30
0.0
  0
VERTEX
  5
203
330
1C8
100
AcDbEntity
  8
Ebene 2
370
     0
100
AcDbVertex
100
AcDb2dVertex
 10
200.0010162211563
 20
181.840527899837
 30
0.0
  0
VERTEX
  5
204
330
1C8
100
AcDbEntity
  8
Ebene 2
370
     0
100
AcDbVertex
100
AcDb2dVertex
 10
194.6084047006188
 20
187.2333116752623
 30
0.0
  0
VERTEX
  5
205
330
1C8
100
AcDbEntity
  8
Ebene 2
370
     0
100
AcDbVertex
100
AcDb2dVertex
 10
184.6520721801096
 20
177.2769791547531
 30
0.0
  0
SEQEND
  5
206
330
1C8
100
AcDbEntity
  8
Ebene 2
370
     0
  0
POLYLINE
  5
207
330
1F
100
AcDbEntity
  8
Ebene 2
370
     0
100
AcDb2dPolyline
 66
     1
 10
0.0
 20
0.0
 30
0.0
  0
VERTEX
  5
208
330
207
100
AcDbEntity
  8
Ebene 2
370
     0
100
AcDbVertex
100
AcDb2dVertex
 10
15.39441933145181
 20
167.0806955754018
 30
0.0
  0
VERTEX
  5
209
330
207
100
AcDbEntity
  8
Ebene 2
370
     0
100
AcDbVertex
100
AcDb2dVertex
 10
21.99195379283634
 20
160.4833333689051
 30
0.0
  0
VERTEX
  5
20A
330
207
100
AcDbEntity
  8
Ebene 2
370
     0
100
AcDbVertex
100
AcDb2dVertex
 10
25.35075185196109
 20
157.1243630548925
 30
0.0
  0
VERTEX
  5
20B
330
207
100
AcDbEntity
  8
Ebene 2
370
     0
100
AcDbVertex
100
AcDb2dVertex
 10
28.70954991108583
 20
160.4833333689051
 30
0.0
  0
VERTEX
  5
20C
330
207
100
AcDbEntity
  8
Ebene 2
370
     0
100
AcDbVertex
100
AcDb2dVertex
 10
35.30691211758246
 20
167.080351065626
 30
0.0
  0
VERTEX
  5
20D
330
207
100
AcDbEntity
  8
Ebene 2
370
     0
100
AcDbVertex
100
AcDb2dVertex
 10
41.904446578967
 20
160.4829888591293
 30
0.0
  0
VERTEX
  5
20E
330
207
100
AcDbEntity
  8
Ebene 2
370
     0
100
AcDbVertex
100
AcDb2dVertex
 10
45.26324463809175
 20
157.1240185451167
 30
0.0
  0
VERTEX
  5
20F
330
207
100
AcDbEntity
  8
Ebene 2
370
     0
100
AcDbVertex
100
AcDb2dVertex
 10
48.62221495210439
 20
160.4829888591293
 30
0.0
  0
VERTEX
  5
210
330
207
100
AcDbEntity
  8
Ebene 2
370
     0
100
AcDbVertex
100
AcDb2dVertex
 10
55.21957715860103
 20
167.080351065626
 30
0.0
  0
VERTEX
  5
211
330
207
100
AcDbEntity
  8
Ebene 2
370
     0
100
AcDbVertex
100
AcDb2dVertex
 10
61.81693936509766
 20
160.4829888591293
 30
0.0
  0
VERTEX
  5
212
330
207
100
AcDbEntity
  8
Ebene 2
370
     0
100
AcDbVertex
100
AcDb2dVertex
 10
65.1759096791103
 20
157.1240185451167
 30
0.0
  0
VERTEX
  5
213
330
207
100
AcDbEntity
  8
Ebene 2
370
     0
100
AcDbVertex
100
AcDb2dVertex
 10
68.53470773823506
 20
160.4829888591293
 30
0.0
  0
VERTEX
  5
214
330
207
100
AcDbEntity
  8
Ebene 2
370
     0
100
AcDbVertex
100
AcDb2dVertex
 10
75.13206994473168
 20
167.0800065558502
 30
0.0
  0
VERTEX
  5
215
330
207
100
AcDbEntity
  8
Ebene 2
370
     0
100
AcDbVertex
100
AcDb2dVertex
 10
81.72943215122832
 20
160.4826443493535
 30
0.0
  0
VERTEX
  5
216
330
207
100
AcDbEntity
  8
Ebene 2
370
     0
100
AcDbVertex
100
AcDb2dVertex
 10
85.08840246524096
 20
157.1236740353409
 30
0.0
  0
VERTEX
  5
217
330
207
100
AcDbEntity
  8
Ebene 2
370
     0
100
AcDbVertex
100
AcDb2dVertex
 10
88.44737277925361
 20
160.4826443493535
 30
0.0
  0
VERTEX
  5
218
330
207
100
AcDbEntity
  8
Ebene 2
370
     0
100
AcDbVertex
100
AcDb2dVertex
 10
95.04473498575025
 20
167.0800065558502
 30
0.0
  0
VERTEX
  5
219
330
207
100
AcDbEntity
  8
Ebene 2
370
     0
100
AcDbVertex
100
AcDb2dVertex
 10
101.6420971922469
 20
160.4826443493535
 30
0.0
  0
VERTEX
  5
21A
330
207
100
AcDbEntity
  8
Ebene 2
370
     0
100
AcDbVertex
100
AcDb2dVertex
 10
105.0010675062595
 20
157.1236740353409
 30
0.0
  0
VERTEX
  5
21B
330
207
100
AcDbEntity
  8
Ebene 2
370
     0
100
AcDbVertex
100
AcDb2dVertex
 10
108.3600378202722
 20
160.4826443493535
 30
0.0
  0
VERTEX
  5
21C
330
207
100
AcDbEntity
  8
Ebene 2
370
     0
100
AcDbVertex
100
AcDb2dVertex
 10
114.9574000267688
 20
167.0800065558502
 30
0.0
  0
VERTEX
  5
21D
330
207
100
AcDbEntity
  8
Ebene 2
370
     0
100
AcDbVertex
100
AcDb2dVertex
 10
121.5547622332654
 20
160.4826443493535
 30
0.0
  0
VERTEX
  5
21E
330
207
100
AcDbEntity
  8
Ebene 2
370
     0
100
AcDbVertex
100
AcDb2dVertex
 10
124.9137325472781
 20
157.1236740353409
 30
0.0
  0
VERTEX
  5
21F
330
207
100
AcDbEntity
  8
Ebene 2
370
     0
100
AcDbVertex
100
AcDb2dVertex
 10
128.2727028612907
 20
160.4826443493535
 30
0.0
  0
VERTEX
  5
220
330
207
100
AcDbEntity
  8
Ebene 2
370
     0
100
AcDbVertex
100
AcDb2dVertex
 10
134.8700650677874
 20
167.0800065558502
 30
0.0
  0
VERTEX
  5
221
330
207
100
AcDbEntity
  8
Ebene 2
370
     0
100
AcDbVertex
100
AcDb2dVertex
 10
141.4677717840598
 20
160.4826443493535
 30
0.0
  0
VERTEX
  5
222
330
207
100
AcDbEntity
  8
Ebene 2
370
     0
100
AcDbVertex
100
AcDb2dVertex
 10
144.8263975882967
 20
157.1236740353409
 30
0.0
  0
VERTEX
  5
223
330
207
100
AcDbEntity
  8
Ebene 2
370
     0
100
AcDbVertex
100
AcDb2dVertex
 10
148.1853679023093
 20
160.4826443493535
 30
0.0
  0
VERTEX
  5
224
330
207
100
AcDbEntity
  8
Ebene 2
370
     0
100
AcDbVertex
100
AcDb2dVertex
 10
154.7830746185817
 20
167.0800065558502
 30
0.0
  0
VERTEX
  5
225
330
207
100
AcDbEntity
  8
Ebene 2
370
     0
100
AcDbVertex
100
AcDb2dVertex
 10
161.3804368250784
 20
160.4826443493535
 30
0.0
  0
VERTEX
  5
226
330
207
100
AcDbEntity
  8
Ebene 2
370
     0
100
AcDbVertex
100
AcDb2dVertex
 10
164.739407139091
 20
157.1236740353409
 30
0.0
  0
VERTEX
  5
227
330
207
100
AcDbEntity
  8
Ebene 2
370
     0
100
AcDbVertex
100
AcDb2dVertex
 10
168.0983774531036
 20
160.4826443493535
 30
0.0
  0
VERTEX
  5
228
330
207
100
AcDbEntity
  8
Ebene 2
370
     0
100
AcDbVertex
100
AcDb2dVertex
 10
174.6957396596003
 20
167.0800065558502
 30
0.0
  0
VERTEX
  5
229
330
207
100
AcDbEntity
  8
Ebene 2
370
     0
100
AcDbVertex
100
AcDb2dVertex
 10
181.2931018660969
 20
160.4826443493535
 30
0.0
  0
VERTEX
  5
22A
330
207
100
AcDbEntity
  8
Ebene 2
370
     0
100
AcDbVertex
100
AcDb2dVertex
 10
184.6520721801096
 20
157.1236740353409
 30
0.0
  0
VERTEX
  5
22B
330
207
100
AcDbEntity
  8
Ebene 2
370
     0
100
AcDbVertex
100
AcDb2dVertex
 10
188.0110424941222
 20
160.4826443493535
 30
0.0
  0
VERTEX
  5
22C
330
207
100
AcDbEntity
  8
Ebene 2
370
     0
100
AcDbVertex
100
AcDb2dVertex
 10
194.6084047006188
 20
167.0800065558502
 30
0.0
  0
VERTEX
  5
22D
330
207
100
AcDbEntity
  8
Ebene 2
370
     0
100
AcDbVertex
100
AcDb2dVertex
 10
200.0010162211563
 20
161.6873950353127
 30
0.0
  0
VERTEX
  5
22E
330
207
100
AcDbEntity
  8
Ebene 2
370
     0
100
AcDbVertex
100
AcDb2dVertex
 10
200.0010162211563
 20
168.4049911535622
 30
0.0
  0
VERTEX
  5
22F
330
207
100
AcDbEntity
  8
Ebene 2
370
     0
100
AcDbVertex
100
AcDb2dVertex
 10
194.6084047006188
 20
173.7979471838755
 30
0.0
  0
VERTEX
  5
230
330
207
100
AcDbEntity
  8
Ebene 2
370
     0
100
AcDbVertex
100
AcDb2dVertex
 10
184.6520721801096
 20
163.8412701535904
 30
0.0
  0
VERTEX
  5
231
330
207
100
AcDbEntity
  8
Ebene 2
370
     0
100
AcDbVertex
100
AcDb2dVertex
 10
174.6957396596003
 20
173.7979471838755
 30
0.0
  0
VERTEX
  5
232
330
207
100
AcDbEntity
  8
Ebene 2
370
     0
100
AcDbVertex
100
AcDb2dVertex
 10
164.739407139091
 20
163.8412701535904
 30
0.0
  0
VERTEX
  5
233
330
207
100
AcDbEntity
  8
Ebene 2
370
     0
100
AcDbVertex
100
AcDb2dVertex
 10
154.7830746185817
 20
173.7979471838755
 30
0.0
  0
VERTEX
  5
234
330
207
100
AcDbEntity
  8
Ebene 2
370
     0
100
AcDbVertex
100
AcDb2dVertex
 10
144.8263975882967
 20
163.8412701535904
 30
0.0
  0
VERTEX
  5
235
330
207
100
AcDbEntity
  8
Ebene 2
370
     0
100
AcDbVertex
100
AcDb2dVertex
 10
134.8700650677874
 20
173.7979471838755
 30
0.0
  0
VERTEX
  5
236
330
207
100
AcDbEntity
  8
Ebene 2
370
     0
100
AcDbVertex
100
AcDb2dVertex
 10
124.9137325472781
 20
163.8412701535904
 30
0.0
  0
VERTEX
  5
237
330
207
100
AcDbEntity
  8
Ebene 2
370
     0
100
AcDbVertex
100
AcDb2dVertex
 10
114.9574000267688
 20
173.7979471838755
 30
0.0
  0
VERTEX
  5
238
330
207
100
AcDbEntity
  8
Ebene 2
370
     0
100
AcDbVertex
100
AcDb2dVertex
 10
105.0010675062595
 20
163.8416146633662
 30
0.0
  0
VERTEX
  5
239
330
207
100
AcDbEntity
  8
Ebene 2
370
     0
100
AcDbVertex
100
AcDb2dVertex
 10
95.04473498575025
 20
173.7979471838755
 30
0.0
  0
VERTEX
  5
23A
330
207
100
AcDbEntity
  8
Ebene 2
370
     0
100
AcDbVertex
100
AcDb2dVertex
 10
85.08840246524096
 20
163.8416146633662
 30
0.0
  0
VERTEX
  5
23B
330
207
100
AcDbEntity
  8
Ebene 2
370
     0
100
AcDbVertex
100
AcDb2dVertex
 10
75.13206994473168
 20
173.7979471838755
 30
0.0
  0
VERTEX
  5
23C
330
207
100
AcDbEntity
  8
Ebene 2
370
     0
100
AcDbVertex
100
AcDb2dVertex
 10
65.1757374242224
 20
163.841959173142
 30
0.0
  0
VERTEX
  5
23D
330
207
100
AcDbEntity
  8
Ebene 2
370
     0
100
AcDbVertex
100
AcDb2dVertex
 10
55.21940490371313
 20
173.7982916936513
 30
0.0
  0
VERTEX
  5
23E
330
207
100
AcDbEntity
  8
Ebene 2
370
     0
100
AcDbVertex
100
AcDb2dVertex
 10
45.26324463809175
 20
163.841959173142
 30
0.0
  0
VERTEX
  5
23F
330
207
100
AcDbEntity
  8
Ebene 2
370
     0
100
AcDbVertex
100
AcDb2dVertex
 10
35.30691211758246
 20
173.7982916936513
 30
0.0
  0
VERTEX
  5
240
330
207
100
AcDbEntity
  8
Ebene 2
370
     0
100
AcDbVertex
100
AcDb2dVertex
 10
25.35057959707319
 20
163.8423036829178
 30
0.0
  0
VERTEX
  5
241
330
207
100
AcDbEntity
  8
Ebene 2
370
     0
100
AcDbVertex
100
AcDb2dVertex
 10
15.39424707656391
 20
173.7986362034271
 30
0.0
  0
VERTEX
  5
242
330
207
100
AcDbEntity
  8
Ebene 2
370
     0
100
AcDbVertex
100
AcDb2dVertex
 10
10.00077428158698
 20
168.4049911535622
 30
0.0
  0
VERTEX
  5
243
330
207
100
AcDbEntity
  8
Ebene 2
370
     0
100
AcDbVertex
100
AcDb2dVertex
 10
10.00077428158698
 20
161.6870505255369
 30
0.0
  0
VERTEX
  5
244
330
207
100
AcDbEntity
  8
Ebene 2
370
     0
100
AcDbVertex
100
AcDb2dVertex
 10
15.39441933145181
 20
167.0806955754018
 30
0.0
  0
SEQEND
  5
245
330
207
100
AcDbEntity
  8
Ebene 2
370
     0
  0
POLYLINE
  5
246
330
1F
100
AcDbEntity
  8
Ebene 2
370
     0
100
AcDb2dPolyline
 66
     1
 10
0.0
 20
0.0
 30
0.0
  0
VERTEX
  5
247
330
246
100
AcDbEntity
  8
Ebene 2
370
     0
100
AcDbVertex
100
AcDb2dVertex
 10
15.3949360961155
 20
113.3385485903026
 30
0.0
  0
VERTEX
  5
248
330
246
100
AcDbEntity
  8
Ebene 2
370
     0
100
AcDbVertex
100
AcDb2dVertex
 10
21.99229830261213
 20
106.7408418740302
 30
0.0
  0
VERTEX
  5
249
330
246
100
AcDbEntity
  8
Ebene 2
370
     0
100
AcDbVertex
100
AcDb2dVertex
 10
25.35126861662478
 20
103.3822160697933
 30
0.0
  0
VERTEX
  5
24A
330
246
100
AcDbEntity
  8
Ebene 2
370
     0
100
AcDbVertex
100
AcDb2dVertex
 10
28.71006667574953
 20
106.7408418740302
 30
0.0
  0
VERTEX
  5
24B
330
246
100
AcDbEntity
  8
Ebene 2
370
     0
100
AcDbVertex
100
AcDb2dVertex
 10
35.30742888224616
 20
113.3385485903026
 30
0.0
  0
VERTEX
  5
24C
330
246
100
AcDbEntity
  8
Ebene 2
370
     0
100
AcDbVertex
100
AcDb2dVertex
 10
41.90479108874279
 20
106.7408418740302
 30
0.0
  0
VERTEX
  5
24D
330
246
100
AcDbEntity
  8
Ebene 2
370
     0
100
AcDbVertex
100
AcDb2dVertex
 10
45.26376140275544
 20
103.3822160697933
 30
0.0
  0
VERTEX
  5
24E
330
246
100
AcDbEntity
  8
Ebene 2
370
     0
100
AcDbVertex
100
AcDb2dVertex
 10
48.62273171676809
 20
106.7408418740302
 30
0.0
  0
VERTEX
  5
24F
330
246
100
AcDbEntity
  8
Ebene 2
370
     0
100
AcDbVertex
100
AcDb2dVertex
 10
55.22009392326472
 20
113.3383763354147
 30
0.0
  0
VERTEX
  5
250
330
246
100
AcDbEntity
  8
Ebene 2
370
     0
100
AcDbVertex
100
AcDb2dVertex
 10
61.81745612976135
 20
106.7408418740302
 30
0.0
  0
VERTEX
  5
251
330
246
100
AcDbEntity
  8
Ebene 2
370
     0
100
AcDbVertex
100
AcDb2dVertex
 10
65.176426443774
 20
103.3815270502417
 30
0.0
  0
VERTEX
  5
252
330
246
100
AcDbEntity
  8
Ebene 2
370
     0
100
AcDbVertex
100
AcDb2dVertex
 10
68.53522450289874
 20
106.7408418740302
 30
0.0
  0
VERTEX
  5
253
330
246
100
AcDbEntity
  8
Ebene 2
370
     0
100
AcDbVertex
100
AcDb2dVertex
 10
75.13258670939538
 20
113.3383763354147
 30
0.0
  0
VERTEX
  5
254
330
246
100
AcDbEntity
  8
Ebene 2
370
     0
100
AcDbVertex
100
AcDb2dVertex
 10
81.72994891589201
 20
106.7403251093665
 30
0.0
  0
VERTEX
  5
255
330
246
100
AcDbEntity
  8
Ebene 2
370
     0
100
AcDbVertex
100
AcDb2dVertex
 10
85.08891922990466
 20
103.3815270502417
 30
0.0
  0
VERTEX
  5
256
330
246
100
AcDbEntity
  8
Ebene 2
370
     0
100
AcDbVertex
100
AcDb2dVertex
 10
88.44771728902941
 20
106.7403251093665
 30
0.0
  0
VERTEX
  5
257
330
246
100
AcDbEntity
  8
Ebene 2
370
     0
100
AcDbVertex
100
AcDb2dVertex
 10
95.04507949552604
 20
113.3380318256389
 30
0.0
  0
VERTEX
  5
258
330
246
100
AcDbEntity
  8
Ebene 2
370
     0
100
AcDbVertex
100
AcDb2dVertex
 10
101.6424417020227
 20
106.7403251093665
 30
0.0
  0
VERTEX
  5
259
330
246
100
AcDbEntity
  8
Ebene 2
370
     0
100
AcDbVertex
100
AcDb2dVertex
 10
105.0017565258111
 20
103.3815270502417
 30
0.0
  0
VERTEX
  5
25A
330
246
100
AcDbEntity
  8
Ebene 2
370
     0
100
AcDbVertex
100
AcDb2dVertex
 10
108.360382330048
 20
106.7403251093665
 30
0.0
  0
VERTEX
  5
25B
330
246
100
AcDbEntity
  8
Ebene 2
370
     0
100
AcDbVertex
100
AcDb2dVertex
 10
114.9577445365446
 20
113.3380318256389
 30
0.0
  0
VERTEX
  5
25C
330
246
100
AcDbEntity
  8
Ebene 2
370
     0
100
AcDbVertex
100
AcDb2dVertex
 10
121.5551067430412
 20
106.7403251093665
 30
0.0
  0
VERTEX
  5
25D
330
246
100
AcDbEntity
  8
Ebene 2
370
     0
100
AcDbVertex
100
AcDb2dVertex
 10
124.9144215668297
 20
103.3815270502417
 30
0.0
  0
VERTEX
  5
25E
330
246
100
AcDbEntity
  8
Ebene 2
370
     0
100
AcDbVertex
100
AcDb2dVertex
 10
128.2730473710665
 20
106.7403251093665
 30
0.0
  0
VERTEX
  5
25F
330
246
100
AcDbEntity
  8
Ebene 2
370
     0
100
AcDbVertex
100
AcDb2dVertex
 10
134.8704095775632
 20
113.3376873158631
 30
0.0
  0
VERTEX
  5
260
330
246
100
AcDbEntity
  8
Ebene 2
370
     0
100
AcDbVertex
100
AcDb2dVertex
 10
141.4677717840598
 20
106.7403251093665
 30
0.0
  0
VERTEX
  5
261
330
246
100
AcDbEntity
  8
Ebene 2
370
     0
100
AcDbVertex
100
AcDb2dVertex
 10
144.8267420980724
 20
103.3808380306901
 30
0.0
  0
VERTEX
  5
262
330
246
100
AcDbEntity
  8
Ebene 2
370
     0
100
AcDbVertex
100
AcDb2dVertex
 10
148.1857124120851
 20
106.7403251093665
 30
0.0
  0
VERTEX
  5
263
330
246
100
AcDbEntity
  8
Ebene 2
370
     0
100
AcDbVertex
100
AcDb2dVertex
 10
154.7830746185817
 20
113.3376873158631
 30
0.0
  0
VERTEX
  5
264
330
246
100
AcDbEntity
  8
Ebene 2
370
     0
100
AcDbVertex
100
AcDb2dVertex
 10
161.3804368250784
 20
106.7403251093665
 30
0.0
  0
VERTEX
  5
265
330
246
100
AcDbEntity
  8
Ebene 2
370
     0
100
AcDbVertex
100
AcDb2dVertex
 10
164.739407139091
 20
103.3808380306901
 30
0.0
  0
VERTEX
  5
266
330
246
100
AcDbEntity
  8
Ebene 2
370
     0
100
AcDbVertex
100
AcDb2dVertex
 10
168.0983774531036
 20
106.7396360898149
 30
0.0
  0
VERTEX
  5
267
330
246
100
AcDbEntity
  8
Ebene 2
370
     0
100
AcDbVertex
100
AcDb2dVertex
 10
174.6957396596003
 20
113.3376873158631
 30
0.0
  0
VERTEX
  5
268
330
246
100
AcDbEntity
  8
Ebene 2
370
     0
100
AcDbVertex
100
AcDb2dVertex
 10
181.2931018660969
 20
106.7396360898149
 30
0.0
  0
VERTEX
  5
269
330
246
100
AcDbEntity
  8
Ebene 2
370
     0
100
AcDbVertex
100
AcDb2dVertex
 10
184.6520721801096
 20
103.3808380306901
 30
0.0
  0
VERTEX
  5
26A
330
246
100
AcDbEntity
  8
Ebene 2
370
     0
100
AcDbVertex
100
AcDb2dVertex
 10
188.0110424941222
 20
106.7396360898149
 30
0.0
  0
VERTEX
  5
26B
330
246
100
AcDbEntity
  8
Ebene 2
370
     0
100
AcDbVertex
100
AcDb2dVertex
 10
194.6084047006188
 20
113.3376873158631
 30
0.0
  0
VERTEX
  5
26C
330
246
100
AcDbEntity
  8
Ebene 2
370
     0
100
AcDbVertex
100
AcDb2dVertex
 10
200.0010162211563
 20
107.944559030662
 30
0.0
  0
VERTEX
  5
26D
330
246
100
AcDbEntity
  8
Ebene 2
370
     0
100
AcDbVertex
100
AcDb2dVertex
 10
200.0010162211563
 20
114.6624996586873
 30
0.0
  0
VERTEX
  5
26E
330
246
100
AcDbEntity
  8
Ebene 2
370
     0
100
AcDbVertex
100
AcDb2dVertex
 10
194.6084047006188
 20
120.0551111792247
 30
0.0
  0
VERTEX
  5
26F
330
246
100
AcDbEntity
  8
Ebene 2
370
     0
100
AcDbVertex
100
AcDb2dVertex
 10
184.6520721801096
 20
110.0987786587154
 30
0.0
  0
VERTEX
  5
270
330
246
100
AcDbEntity
  8
Ebene 2
370
     0
100
AcDbVertex
100
AcDb2dVertex
 10
174.6957396596003
 20
120.0551111792247
 30
0.0
  0
VERTEX
  5
271
330
246
100
AcDbEntity
  8
Ebene 2
370
     0
100
AcDbVertex
100
AcDb2dVertex
 10
164.739407139091
 20
110.0987786587154
 30
0.0
  0
VERTEX
  5
272
330
246
100
AcDbEntity
  8
Ebene 2
370
     0
100
AcDbVertex
100
AcDb2dVertex
 10
154.7830746185817
 20
120.0551111792247
 30
0.0
  0
VERTEX
  5
273
330
246
100
AcDbEntity
  8
Ebene 2
370
     0
100
AcDbVertex
100
AcDb2dVertex
 10
144.8267420980724
 20
110.0987786587154
 30
0.0
  0
VERTEX
  5
274
330
246
100
AcDbEntity
  8
Ebene 2
370
     0
100
AcDbVertex
100
AcDb2dVertex
 10
134.8704095775632
 20
120.0554556890005
 30
0.0
  0
VERTEX
  5
275
330
246
100
AcDbEntity
  8
Ebene 2
370
     0
100
AcDbVertex
100
AcDb2dVertex
 10
124.9140770570539
 20
110.0987786587154
 30
0.0
  0
VERTEX
  5
276
330
246
100
AcDbEntity
  8
Ebene 2
370
     0
100
AcDbVertex
100
AcDb2dVertex
 10
114.9577445365446
 20
120.0558001987763
 30
0.0
  0
VERTEX
  5
277
330
246
100
AcDbEntity
  8
Ebene 2
370
     0
100
AcDbVertex
100
AcDb2dVertex
 10
105.0017565258111
 20
110.099467678267
 30
0.0
  0
VERTEX
  5
278
330
246
100
AcDbEntity
  8
Ebene 2
370
     0
100
AcDbVertex
100
AcDb2dVertex
 10
95.04507949552604
 20
120.0558001987763
 30
0.0
  0
VERTEX
  5
279
330
246
100
AcDbEntity
  8
Ebene 2
370
     0
100
AcDbVertex
100
AcDb2dVertex
 10
85.08891922990466
 20
110.099467678267
 30
0.0
  0
VERTEX
  5
27A
330
246
100
AcDbEntity
  8
Ebene 2
370
     0
100
AcDbVertex
100
AcDb2dVertex
 10
75.13258670939538
 20
120.0561447085521
 30
0.0
  0
VERTEX
  5
27B
330
246
100
AcDbEntity
  8
Ebene 2
370
     0
100
AcDbVertex
100
AcDb2dVertex
 10
65.1762541888861
 20
110.099467678267
 30
0.0
  0
VERTEX
  5
27C
330
246
100
AcDbEntity
  8
Ebene 2
370
     0
100
AcDbVertex
100
AcDb2dVertex
 10
55.21992166837682
 20
120.0561447085521
 30
0.0
  0
VERTEX
  5
27D
330
246
100
AcDbEntity
  8
Ebene 2
370
     0
100
AcDbVertex
100
AcDb2dVertex
 10
45.26376140275544
 20
110.099467678267
 30
0.0
  0
VERTEX
  5
27E
330
246
100
AcDbEntity
  8
Ebene 2
370
     0
100
AcDbVertex
100
AcDb2dVertex
 10
35.30742888224616
 20
120.0564892183279
 30
0.0
  0
VERTEX
  5
27F
330
246
100
AcDbEntity
  8
Ebene 2
370
     0
100
AcDbVertex
100
AcDb2dVertex
 10
25.35109636173688
 20
110.1001566978186
 30
0.0
  0
VERTEX
  5
280
330
246
100
AcDbEntity
  8
Ebene 2
370
     0
100
AcDbVertex
100
AcDb2dVertex
 10
15.3947638412276
 20
120.0564892183279
 30
0.0
  0
VERTEX
  5
281
330
246
100
AcDbEntity
  8
Ebene 2
370
     0
100
AcDbVertex
100
AcDb2dVertex
 10
10.00077428158698
 20
114.6624996586873
 30
0.0
  0
VERTEX
  5
282
330
246
100
AcDbEntity
  8
Ebene 2
370
     0
100
AcDbVertex
100
AcDb2dVertex
 10
10.00077428158698
 20
107.9449035404378
 30
0.0
  0
VERTEX
  5
283
330
246
100
AcDbEntity
  8
Ebene 2
370
     0
100
AcDbVertex
100
AcDb2dVertex
 10
15.3949360961155
 20
113.3385485903026
 30
0.0
  0
SEQEND
  5
284
330
246
100
AcDbEntity
  8
Ebene 2
370
     0
  0
POLYLINE
  5
285
330
1F
100
AcDbEntity
  8
Ebene 2
370
     0
100
AcDb2dPolyline
 66
     1
 10
0.0
 20
0.0
 30
0.0
  0
VERTEX
  5
286
330
285
100
AcDbEntity
  8
Ebene 2
370
     0
100
AcDbVertex
100
AcDb2dVertex
 10
194.6090937201704
 20
26.00635395530119
 30
0.0
  0
VERTEX
  5
287
330
285
100
AcDbEntity
  8
Ebene 2
370
     0
100
AcDbVertex
100
AcDb2dVertex
 10
184.6527611996611
 20
16.05036594456771
 30
0.0
  0
VERTEX
  5
288
330
285
100
AcDbEntity
  8
Ebene 2
370
     0
100
AcDbVertex
100
AcDb2dVertex
 10
174.6964286791519
 20
26.00635395530119
 30
0.0
  0
VERTEX
  5
289
330
285
100
AcDbEntity
  8
Ebene 2
370
     0
100
AcDbVertex
100
AcDb2dVertex
 10
164.7400961586426
 20
16.05036594456771
 30
0.0
  0
VERTEX
  5
28A
330
285
100
AcDbEntity
  8
Ebene 2
370
     0
100
AcDbVertex
100
AcDb2dVertex
 10
154.7837636381333
 20
26.00635395530119
 30
0.0
  0
VERTEX
  5
28B
330
285
100
AcDbEntity
  8
Ebene 2
370
     0
100
AcDbVertex
100
AcDb2dVertex
 10
144.8277756273998
 20
16.05036594456771
 30
0.0
  0
VERTEX
  5
28C
330
285
100
AcDbEntity
  8
Ebene 2
370
     0
100
AcDbVertex
100
AcDb2dVertex
 10
134.8710985971148
 20
26.00704297485279
 30
0.0
  0
VERTEX
  5
28D
330
285
100
AcDbEntity
  8
Ebene 2
370
     0
100
AcDbVertex
100
AcDb2dVertex
 10
124.9151105863813
 20
16.05036594456771
 30
0.0
  0
VERTEX
  5
28E
330
285
100
AcDbEntity
  8
Ebene 2
370
     0
100
AcDbVertex
100
AcDb2dVertex
 10
114.9584335560962
 20
26.00704297485279
 30
0.0
  0
VERTEX
  5
28F
330
285
100
AcDbEntity
  8
Ebene 2
370
     0
100
AcDbVertex
100
AcDb2dVertex
 10
105.0024455453627
 20
16.0510549641193
 30
0.0
  0
VERTEX
  5
290
330
285
100
AcDbEntity
  8
Ebene 2
370
     0
100
AcDbVertex
100
AcDb2dVertex
 10
95.04611302485343
 20
26.00704297485279
 30
0.0
  0
VERTEX
  5
291
330
285
100
AcDbEntity
  8
Ebene 2
370
     0
100
AcDbVertex
100
AcDb2dVertex
 10
85.08978050434415
 20
16.0510549641193
 30
0.0
  0
VERTEX
  5
292
330
285
100
AcDbEntity
  8
Ebene 2
370
     0
100
AcDbVertex
100
AcDb2dVertex
 10
75.13344798383487
 20
26.00704297485279
 30
0.0
  0
VERTEX
  5
293
330
285
100
AcDbEntity
  8
Ebene 2
370
     0
100
AcDbVertex
100
AcDb2dVertex
 10
65.17711546332559
 20
16.0510549641193
 30
0.0
  0
VERTEX
  5
294
330
285
100
AcDbEntity
  8
Ebene 2
370
     0
100
AcDbVertex
100
AcDb2dVertex
 10
55.22078294281631
 20
26.00773199440438
 30
0.0
  0
VERTEX
  5
295
330
285
100
AcDbEntity
  8
Ebene 2
370
     0
100
AcDbVertex
100
AcDb2dVertex
 10
45.26462267719493
 20
16.0510549641193
 30
0.0
  0
VERTEX
  5
296
330
285
100
AcDbEntity
  8
Ebene 2
370
     0
100
AcDbVertex
100
AcDb2dVertex
 10
35.30829015668565
 20
26.00773199440438
 30
0.0
  0
VERTEX
  5
297
330
285
100
AcDbEntity
  8
Ebene 2
370
     0
100
AcDbVertex
100
AcDb2dVertex
 10
25.35195763617637
 20
16.0517439836709
 30
0.0
  0
VERTEX
  5
298
330
285
100
AcDbEntity
  8
Ebene 2
370
     0
100
AcDbVertex
100
AcDb2dVertex
 10
15.39562511566709
 20
26.00773199440438
 30
0.0
  0
VERTEX
  5
299
330
285
100
AcDbEntity
  8
Ebene 2
370
     0
100
AcDbVertex
100
AcDb2dVertex
 10
10.00077428158698
 20
20.61305341521217
 30
0.0
  0
VERTEX
  5
29A
330
285
100
AcDbEntity
  8
Ebene 2
370
     0
100
AcDbVertex
100
AcDb2dVertex
 10
10.00077428158698
 20
13.89476827741108
 30
0.0
  0
VERTEX
  5
29B
330
285
100
AcDbEntity
  8
Ebene 2
370
     0
100
AcDbVertex
100
AcDb2dVertex
 10
15.39579737055499
 20
19.28979136637908
 30
0.0
  0
VERTEX
  5
29C
330
285
100
AcDbEntity
  8
Ebene 2
370
     0
100
AcDbVertex
100
AcDb2dVertex
 10
21.99315957705162
 20
12.69242915988245
 30
0.0
  0
VERTEX
  5
29D
330
285
100
AcDbEntity
  8
Ebene 2
370
     0
100
AcDbVertex
100
AcDb2dVertex
 10
24.68550347489868
 20
10.00042977181119
 30
0.0
  0
VERTEX
  5
29E
330
285
100
AcDbEntity
  8
Ebene 2
370
     0
100
AcDbVertex
100
AcDb2dVertex
 10
26.01875630722986
 20
10.00042977181119
 30
0.0
  0
VERTEX
  5
29F
330
285
100
AcDbEntity
  8
Ebene 2
370
     0
100
AcDbVertex
100
AcDb2dVertex
 10
28.71092795018902
 20
12.69242915988245
 30
0.0
  0
VERTEX
  5
2A0
330
285
100
AcDbEntity
  8
Ebene 2
370
     0
100
AcDbVertex
100
AcDb2dVertex
 10
35.30829015668565
 20
19.28979136637908
 30
0.0
  0
VERTEX
  5
2A1
330
285
100
AcDbEntity
  8
Ebene 2
370
     0
100
AcDbVertex
100
AcDb2dVertex
 10
41.90565236318228
 20
12.69242915988245
 30
0.0
  0
VERTEX
  5
2A2
330
285
100
AcDbEntity
  8
Ebene 2
370
     0
100
AcDbVertex
100
AcDb2dVertex
 10
44.59730724147775
 20
10.00042977181119
 30
0.0
  0
VERTEX
  5
2A3
330
285
100
AcDbEntity
  8
Ebene 2
370
     0
100
AcDbVertex
100
AcDb2dVertex
 10
45.93193811291211
 20
10.00042977181119
 30
0.0
  0
VERTEX
  5
2A4
330
285
100
AcDbEntity
  8
Ebene 2
370
     0
100
AcDbVertex
100
AcDb2dVertex
 10
48.62359299120757
 20
12.69242915988245
 30
0.0
  0
VERTEX
  5
2A5
330
285
100
AcDbEntity
  8
Ebene 2
370
     0
100
AcDbVertex
100
AcDb2dVertex
 10
55.22095519770421
 20
19.28979136637908
 30
0.0
  0
VERTEX
  5
2A6
330
285
100
AcDbEntity
  8
Ebene 2
370
     0
100
AcDbVertex
100
AcDb2dVertex
 10
61.81831740420084
 20
12.69242915988245
 30
0.0
  0
VERTEX
  5
2A7
330
285
100
AcDbEntity
  8
Ebene 2
370
     0
100
AcDbVertex
100
AcDb2dVertex
 10
64.5099722824963
 20
10.00042977181119
 30
0.0
  0
VERTEX
  5
2A8
330
285
100
AcDbEntity
  8
Ebene 2
370
     0
100
AcDbVertex
100
AcDb2dVertex
 10
65.84443089904278
 20
10.00042977181119
 30
0.0
  0
VERTEX
  5
2A9
330
285
100
AcDbEntity
  8
Ebene 2
370
     0
100
AcDbVertex
100
AcDb2dVertex
 10
68.53591352245034
 20
12.69242915988245
 30
0.0
  0
VERTEX
  5
2AA
330
285
100
AcDbEntity
  8
Ebene 2
370
     0
100
AcDbVertex
100
AcDb2dVertex
 10
75.13344798383487
 20
19.28979136637908
 30
0.0
  0
VERTEX
  5
2AB
330
285
100
AcDbEntity
  8
Ebene 2
370
     0
100
AcDbVertex
100
AcDb2dVertex
 10
81.73081019033151
 20
12.69174014033086
 30
0.0
  0
VERTEX
  5
2AC
330
285
100
AcDbEntity
  8
Ebene 2
370
     0
100
AcDbVertex
100
AcDb2dVertex
 10
84.42246506862698
 20
10.00042977181119
 30
0.0
  0
VERTEX
  5
2AD
330
285
100
AcDbEntity
  8
Ebene 2
370
     0
100
AcDbVertex
100
AcDb2dVertex
 10
85.75709594006133
 20
10.00042977181119
 30
0.0
  0
VERTEX
  5
2AE
330
285
100
AcDbEntity
  8
Ebene 2
370
     0
100
AcDbVertex
100
AcDb2dVertex
 10
88.4485785634689
 20
12.69174014033086
 30
0.0
  0
VERTEX
  5
2AF
330
285
100
AcDbEntity
  8
Ebene 2
370
     0
100
AcDbVertex
100
AcDb2dVertex
 10
95.04611302485343
 20
19.28910234682749
 30
0.0
  0
VERTEX
  5
2B0
330
285
100
AcDbEntity
  8
Ebene 2
370
     0
100
AcDbVertex
100
AcDb2dVertex
 10
101.6434752313501
 20
12.69174014033086
 30
0.0
  0
VERTEX
  5
2B1
330
285
100
AcDbEntity
  8
Ebene 2
370
     0
100
AcDbVertex
100
AcDb2dVertex
 10
104.3349578547576
 20
10.00042977181119
 30
0.0
  0
VERTEX
  5
2B2
330
285
100
AcDbEntity
  8
Ebene 2
370
     0
100
AcDbVertex
100
AcDb2dVertex
 10
105.6697609810799
 20
10.00042977181119
 30
0.0
  0
VERTEX
  5
2B3
330
285
100
AcDbEntity
  8
Ebene 2
370
     0
100
AcDbVertex
100
AcDb2dVertex
 10
108.3614158593754
 20
12.69174014033086
 30
0.0
  0
VERTEX
  5
2B4
330
285
100
AcDbEntity
  8
Ebene 2
370
     0
100
AcDbVertex
100
AcDb2dVertex
 10
114.958778065872
 20
19.28910234682749
 30
0.0
  0
VERTEX
  5
2B5
330
285
100
AcDbEntity
  8
Ebene 2
370
     0
100
AcDbVertex
100
AcDb2dVertex
 10
121.5561402723686
 20
12.69174014033086
 30
0.0
  0
VERTEX
  5
2B6
330
285
100
AcDbEntity
  8
Ebene 2
370
     0
100
AcDbVertex
100
AcDb2dVertex
 10
124.2477951506641
 20
10.00042977181119
 30
0.0
  0
VERTEX
  5
2B7
330
285
100
AcDbEntity
  8
Ebene 2
370
     0
100
AcDbVertex
100
AcDb2dVertex
 10
125.5824260220984
 20
10.00042977181119
 30
0.0
  0
VERTEX
  5
2B8
330
285
100
AcDbEntity
  8
Ebene 2
370
     0
100
AcDbVertex
100
AcDb2dVertex
 10
128.2737363906181
 20
12.69174014033086
 30
0.0
  0
VERTEX
  5
2B9
330
285
100
AcDbEntity
  8
Ebene 2
370
     0
100
AcDbVertex
100
AcDb2dVertex
 10
134.8710985971148
 20
19.28910234682749
 30
0.0
  0
VERTEX
  5
2BA
330
285
100
AcDbEntity
  8
Ebene 2
370
     0
100
AcDbVertex
100
AcDb2dVertex
 10
141.4684608036114
 20
12.69174014033086
 30
0.0
  0
VERTEX
  5
2BB
330
285
100
AcDbEntity
  8
Ebene 2
370
     0
100
AcDbVertex
100
AcDb2dVertex
 10
144.1597711721311
 20
10.00042977181119
 30
0.0
  0
VERTEX
  5
2BC
330
285
100
AcDbEntity
  8
Ebene 2
370
     0
100
AcDbVertex
100
AcDb2dVertex
 10
145.4957800826686
 20
10.00042977181119
 30
0.0
  0
VERTEX
  5
2BD
330
285
100
AcDbEntity
  8
Ebene 2
370
     0
100
AcDbVertex
100
AcDb2dVertex
 10
148.1864014316367
 20
12.69174014033086
 30
0.0
  0
VERTEX
  5
2BE
330
285
100
AcDbEntity
  8
Ebene 2
370
     0
100
AcDbVertex
100
AcDb2dVertex
 10
154.7837636381333
 20
19.28910234682749
 30
0.0
  0
VERTEX
  5
2BF
330
285
100
AcDbEntity
  8
Ebene 2
370
     0
100
AcDbVertex
100
AcDb2dVertex
 10
161.3814703544057
 20
12.69174014033086
 30
0.0
  0
VERTEX
  5
2C0
330
285
100
AcDbEntity
  8
Ebene 2
370
     0
100
AcDbVertex
100
AcDb2dVertex
 10
164.0720917033738
 20
10.00042977181119
 30
0.0
  0
VERTEX
  5
2C1
330
285
100
AcDbEntity
  8
Ebene 2
370
     0
100
AcDbVertex
100
AcDb2dVertex
 10
165.4081006139114
 20
10.00042977181119
 30
0.0
  0
VERTEX
  5
2C2
330
285
100
AcDbEntity
  8
Ebene 2
370
     0
100
AcDbVertex
100
AcDb2dVertex
 10
168.0990664726552
 20
12.69105112077927
 30
0.0
  0
VERTEX
  5
2C3
330
285
100
AcDbEntity
  8
Ebene 2
370
     0
100
AcDbVertex
100
AcDb2dVertex
 10
174.6964286791519
 20
19.2884133272759
 30
0.0
  0
VERTEX
  5
2C4
330
285
100
AcDbEntity
  8
Ebene 2
370
     0
100
AcDbVertex
100
AcDb2dVertex
 10
181.2937908856485
 20
12.69105112077927
 30
0.0
  0
VERTEX
  5
2C5
330
285
100
AcDbEntity
  8
Ebene 2
370
     0
100
AcDbVertex
100
AcDb2dVertex
 10
183.9847567443924
 20
10.00042977181119
 30
0.0
  0
VERTEX
  5
2C6
330
285
100
AcDbEntity
  8
Ebene 2
370
     0
100
AcDbVertex
100
AcDb2dVertex
 10
185.3207656549299
 20
10.00042977181119
 30
0.0
  0
VERTEX
  5
2C7
330
285
100
AcDbEntity
  8
Ebene 2
370
     0
100
AcDbVertex
100
AcDb2dVertex
 10
188.011387003898
 20
12.69105112077927
 30
0.0
  0
VERTEX
  5
2C8
330
285
100
AcDbEntity
  8
Ebene 2
370
     0
100
AcDbVertex
100
AcDb2dVertex
 10
194.6090937201704
 20
19.2884133272759
 30
0.0
  0
VERTEX
  5
2C9
330
285
100
AcDbEntity
  8
Ebene 2
370
     0
100
AcDbVertex
100
AcDb2dVertex
 10
200.0010162211563
 20
13.89649082629006
 30
0.0
  0
VERTEX
  5
2CA
330
285
100
AcDbEntity
  8
Ebene 2
370
     0
100
AcDbVertex
100
AcDb2dVertex
 10
200.0010162211563
 20
20.61408694453956
 30
0.0
  0
VERTEX
  5
2CB
330
285
100
AcDbEntity
  8
Ebene 2
370
     0
100
AcDbVertex
100
AcDb2dVertex
 10
194.6090937201704
 20
26.00635395530119
 30
0.0
  0
SEQEND
  5
2CC
330
285
100
AcDbEntity
  8
Ebene 2
370
     0
  0
POLYLINE
  5
2CD
330
1F
100
AcDbEntity
  8
Ebene 2
370
     0
100
AcDb2dPolyline
 66
     1
 10
0.0
 20
0.0
 30
0.0
  0
VERTEX
  5
2CE
330
2CD
100
AcDbEntity
  8
Ebene 2
370
     0
100
AcDbVertex
100
AcDb2dVertex
 10
15.3947638412276
 20
126.7742575914653
 30
0.0
  0
VERTEX
  5
2CF
330
2CD
100
AcDbEntity
  8
Ebene 2
370
     0
100
AcDbVertex
100
AcDb2dVertex
 10
21.99212604772423
 20
120.1768953849687
 30
0.0
  0
VERTEX
  5
2D0
330
2CD
100
AcDbEntity
  8
Ebene 2
370
     0
100
AcDbVertex
100
AcDb2dVertex
 10
25.35109636173688
 20
116.817925070956
 30
0.0
  0
VERTEX
  5
2D1
330
2CD
100
AcDbEntity
  8
Ebene 2
370
     0
100
AcDbVertex
100
AcDb2dVertex
 10
28.70989442086163
 20
120.1765508751929
 30
0.0
  0
VERTEX
  5
2D2
330
2CD
100
AcDbEntity
  8
Ebene 2
370
     0
100
AcDbVertex
100
AcDb2dVertex
 10
35.30725662735826
 20
126.7739130816895
 30
0.0
  0
VERTEX
  5
2D3
330
2CD
100
AcDbEntity
  8
Ebene 2
370
     0
100
AcDbVertex
100
AcDb2dVertex
 10
41.90479108874279
 20
120.1765508751929
 30
0.0
  0
VERTEX
  5
2D4
330
2CD
100
AcDbEntity
  8
Ebene 2
370
     0
100
AcDbVertex
100
AcDb2dVertex
 10
45.26358914786754
 20
116.8177528160681
 30
0.0
  0
VERTEX
  5
2D5
330
2CD
100
AcDbEntity
  8
Ebene 2
370
     0
100
AcDbVertex
100
AcDb2dVertex
 10
48.62255946188019
 20
120.1765508751929
 30
0.0
  0
VERTEX
  5
2D6
330
2CD
100
AcDbEntity
  8
Ebene 2
370
     0
100
AcDbVertex
100
AcDb2dVertex
 10
55.21992166837682
 20
126.7739130816895
 30
0.0
  0
VERTEX
  5
2D7
330
2CD
100
AcDbEntity
  8
Ebene 2
370
     0
100
AcDbVertex
100
AcDb2dVertex
 10
61.81728387487345
 20
120.1765508751929
 30
0.0
  0
VERTEX
  5
2D8
330
2CD
100
AcDbEntity
  8
Ebene 2
370
     0
100
AcDbVertex
100
AcDb2dVertex
 10
65.1762541888861
 20
116.8177528160681
 30
0.0
  0
VERTEX
  5
2D9
330
2CD
100
AcDbEntity
  8
Ebene 2
370
     0
100
AcDbVertex
100
AcDb2dVertex
 10
68.53505224801086
 20
120.1762063654171
 30
0.0
  0
VERTEX
  5
2DA
330
2CD
100
AcDbEntity
  8
Ebene 2
370
     0
100
AcDbVertex
100
AcDb2dVertex
 10
75.13241445450748
 20
126.7737408268016
 30
0.0
  0
VERTEX
  5
2DB
330
2CD
100
AcDbEntity
  8
Ebene 2
370
     0
100
AcDbVertex
100
AcDb2dVertex
 10
81.72994891589201
 20
120.1762063654171
 30
0.0
  0
VERTEX
  5
2DC
330
2CD
100
AcDbEntity
  8
Ebene 2
370
     0
100
AcDbVertex
100
AcDb2dVertex
 10
85.08874697501676
 20
116.8174083062923
 30
0.0
  0
VERTEX
  5
2DD
330
2CD
100
AcDbEntity
  8
Ebene 2
370
     0
100
AcDbVertex
100
AcDb2dVertex
 10
88.44771728902941
 20
120.1762063654171
 30
0.0
  0
VERTEX
  5
2DE
330
2CD
100
AcDbEntity
  8
Ebene 2
370
     0
100
AcDbVertex
100
AcDb2dVertex
 10
95.04507949552604
 20
126.7737408268016
 30
0.0
  0
VERTEX
  5
2DF
330
2CD
100
AcDbEntity
  8
Ebene 2
370
     0
100
AcDbVertex
100
AcDb2dVertex
 10
101.6424417020227
 20
120.1762063654171
 30
0.0
  0
VERTEX
  5
2E0
330
2CD
100
AcDbEntity
  8
Ebene 2
370
     0
100
AcDbVertex
100
AcDb2dVertex
 10
105.0014120160353
 20
116.8174083062923
 30
0.0
  0
VERTEX
  5
2E1
330
2CD
100
AcDbEntity
  8
Ebene 2
370
     0
100
AcDbVertex
100
AcDb2dVertex
 10
108.360382330048
 20
120.1762063654171
 30
0.0
  0
VERTEX
  5
2E2
330
2CD
100
AcDbEntity
  8
Ebene 2
370
     0
100
AcDbVertex
100
AcDb2dVertex
 10
114.9577445365446
 20
126.7733963170258
 30
0.0
  0
VERTEX
  5
2E3
330
2CD
100
AcDbEntity
  8
Ebene 2
370
     0
100
AcDbVertex
100
AcDb2dVertex
 10
121.5551067430412
 20
120.1758618556413
 30
0.0
  0
VERTEX
  5
2E4
330
2CD
100
AcDbEntity
  8
Ebene 2
370
     0
100
AcDbVertex
100
AcDb2dVertex
 10
124.9140770570539
 20
116.8170637965165
 30
0.0
  0
VERTEX
  5
2E5
330
2CD
100
AcDbEntity
  8
Ebene 2
370
     0
100
AcDbVertex
100
AcDb2dVertex
 10
128.2730473710665
 20
120.1758618556413
 30
0.0
  0
VERTEX
  5
2E6
330
2CD
100
AcDbEntity
  8
Ebene 2
370
     0
100
AcDbVertex
100
AcDb2dVertex
 10
134.8704095775632
 20
126.7733963170258
 30
0.0
  0
VERTEX
  5
2E7
330
2CD
100
AcDbEntity
  8
Ebene 2
370
     0
100
AcDbVertex
100
AcDb2dVertex
 10
141.4677717840598
 20
120.1756896007534
 30
0.0
  0
VERTEX
  5
2E8
330
2CD
100
AcDbEntity
  8
Ebene 2
370
     0
100
AcDbVertex
100
AcDb2dVertex
 10
144.8263975882967
 20
116.8170637965165
 30
0.0
  0
VERTEX
  5
2E9
330
2CD
100
AcDbEntity
  8
Ebene 2
370
     0
100
AcDbVertex
100
AcDb2dVertex
 10
148.1857124120851
 20
120.1756896007534
 30
0.0
  0
VERTEX
  5
2EA
330
2CD
100
AcDbEntity
  8
Ebene 2
370
     0
100
AcDbVertex
100
AcDb2dVertex
 10
154.7830746185817
 20
126.77305180725
 30
0.0
  0
VERTEX
  5
2EB
330
2CD
100
AcDbEntity
  8
Ebene 2
370
     0
100
AcDbVertex
100
AcDb2dVertex
 10
161.3804368250784
 20
120.1756896007534
 30
0.0
  0
VERTEX
  5
2EC
330
2CD
100
AcDbEntity
  8
Ebene 2
370
     0
100
AcDbVertex
100
AcDb2dVertex
 10
164.739407139091
 20
116.8167192867407
 30
0.0
  0
VERTEX
  5
2ED
330
2CD
100
AcDbEntity
  8
Ebene 2
370
     0
100
AcDbVertex
100
AcDb2dVertex
 10
168.0983774531036
 20
120.1756896007534
 30
0.0
  0
VERTEX
  5
2EE
330
2CD
100
AcDbEntity
  8
Ebene 2
370
     0
100
AcDbVertex
100
AcDb2dVertex
 10
174.6957396596003
 20
126.77305180725
 30
0.0
  0
VERTEX
  5
2EF
330
2CD
100
AcDbEntity
  8
Ebene 2
370
     0
100
AcDbVertex
100
AcDb2dVertex
 10
181.2931018660969
 20
120.1756896007534
 30
0.0
  0
VERTEX
  5
2F0
330
2CD
100
AcDbEntity
  8
Ebene 2
370
     0
100
AcDbVertex
100
AcDb2dVertex
 10
184.6520721801096
 20
116.8167192867407
 30
0.0
  0
VERTEX
  5
2F1
330
2CD
100
AcDbEntity
  8
Ebene 2
370
     0
100
AcDbVertex
100
AcDb2dVertex
 10
188.0110424941222
 20
120.1756896007534
 30
0.0
  0
VERTEX
  5
2F2
330
2CD
100
AcDbEntity
  8
Ebene 2
370
     0
100
AcDbVertex
100
AcDb2dVertex
 10
194.6084047006188
 20
126.77305180725
 30
0.0
  0
VERTEX
  5
2F3
330
2CD
100
AcDbEntity
  8
Ebene 2
370
     0
100
AcDbVertex
100
AcDb2dVertex
 10
200.0010162211563
 20
121.3802680318247
 30
0.0
  0
VERTEX
  5
2F4
330
2CD
100
AcDbEntity
  8
Ebene 2
370
     0
100
AcDbVertex
100
AcDb2dVertex
 10
200.0010162211563
 20
128.09820865985
 30
0.0
  0
VERTEX
  5
2F5
330
2CD
100
AcDbEntity
  8
Ebene 2
370
     0
100
AcDbVertex
100
AcDb2dVertex
 10
194.6084047006188
 20
133.4908201803874
 30
0.0
  0
VERTEX
  5
2F6
330
2CD
100
AcDbEntity
  8
Ebene 2
370
     0
100
AcDbVertex
100
AcDb2dVertex
 10
184.6520721801096
 20
123.5344876598781
 30
0.0
  0
VERTEX
  5
2F7
330
2CD
100
AcDbEntity
  8
Ebene 2
370
     0
100
AcDbVertex
100
AcDb2dVertex
 10
174.6957396596003
 20
133.4908201803874
 30
0.0
  0
VERTEX
  5
2F8
330
2CD
100
AcDbEntity
  8
Ebene 2
370
     0
100
AcDbVertex
100
AcDb2dVertex
 10
164.739407139091
 20
123.5344876598781
 30
0.0
  0
VERTEX
  5
2F9
330
2CD
100
AcDbEntity
  8
Ebene 2
370
     0
100
AcDbVertex
100
AcDb2dVertex
 10
154.7830746185817
 20
133.4908201803874
 30
0.0
  0
VERTEX
  5
2FA
330
2CD
100
AcDbEntity
  8
Ebene 2
370
     0
100
AcDbVertex
100
AcDb2dVertex
 10
144.8263975882967
 20
123.5344876598781
 30
0.0
  0
VERTEX
  5
2FB
330
2CD
100
AcDbEntity
  8
Ebene 2
370
     0
100
AcDbVertex
100
AcDb2dVertex
 10
134.8704095775632
 20
133.4911646901632
 30
0.0
  0
VERTEX
  5
2FC
330
2CD
100
AcDbEntity
  8
Ebene 2
370
     0
100
AcDbVertex
100
AcDb2dVertex
 10
124.9140770570539
 20
123.5348321696539
 30
0.0
  0
VERTEX
  5
2FD
330
2CD
100
AcDbEntity
  8
Ebene 2
370
     0
100
AcDbVertex
100
AcDb2dVertex
 10
114.9577445365446
 20
133.4911646901632
 30
0.0
  0
VERTEX
  5
2FE
330
2CD
100
AcDbEntity
  8
Ebene 2
370
     0
100
AcDbVertex
100
AcDb2dVertex
 10
105.0014120160353
 20
123.5348321696539
 30
0.0
  0
VERTEX
  5
2FF
330
2CD
100
AcDbEntity
  8
Ebene 2
370
     0
100
AcDbVertex
100
AcDb2dVertex
 10
95.04507949552604
 20
133.491509199939
 30
0.0
  0
VERTEX
  5
300
330
2CD
100
AcDbEntity
  8
Ebene 2
370
     0
100
AcDbVertex
100
AcDb2dVertex
 10
85.08874697501676
 20
123.5351766794297
 30
0.0
  0
VERTEX
  5
301
330
2CD
100
AcDbEntity
  8
Ebene 2
370
     0
100
AcDbVertex
100
AcDb2dVertex
 10
75.13241445450748
 20
133.491509199939
 30
0.0
  0
VERTEX
  5
302
330
2CD
100
AcDbEntity
  8
Ebene 2
370
     0
100
AcDbVertex
100
AcDb2dVertex
 10
65.1762541888861
 20
123.5351766794297
 30
0.0
  0
VERTEX
  5
303
330
2CD
100
AcDbEntity
  8
Ebene 2
370
     0
100
AcDbVertex
100
AcDb2dVertex
 10
55.21974941348893
 20
133.491509199939
 30
0.0
  0
VERTEX
  5
304
330
2CD
100
AcDbEntity
  8
Ebene 2
370
     0
100
AcDbVertex
100
AcDb2dVertex
 10
45.26358914786754
 20
123.5355211892055
 30
0.0
  0
VERTEX
  5
305
330
2CD
100
AcDbEntity
  8
Ebene 2
370
     0
100
AcDbVertex
100
AcDb2dVertex
 10
35.30725662735826
 20
133.4918537097148
 30
0.0
  0
VERTEX
  5
306
330
2CD
100
AcDbEntity
  8
Ebene 2
370
     0
100
AcDbVertex
100
AcDb2dVertex
 10
25.35109636173688
 20
123.5355211892055
 30
0.0
  0
VERTEX
  5
307
330
2CD
100
AcDbEntity
  8
Ebene 2
370
     0
100
AcDbVertex
100
AcDb2dVertex
 10
15.3945915863397
 20
133.4918537097148
 30
0.0
  0
VERTEX
  5
308
330
2CD
100
AcDbEntity
  8
Ebene 2
370
     0
100
AcDbVertex
100
AcDb2dVertex
 10
10.00077428158698
 20
128.09820865985
 30
0.0
  0
VERTEX
  5
309
330
2CD
100
AcDbEntity
  8
Ebene 2
370
     0
100
AcDbVertex
100
AcDb2dVertex
 10
10.00077428158698
 20
121.3802680318247
 30
0.0
  0
VERTEX
  5
30A
330
2CD
100
AcDbEntity
  8
Ebene 2
370
     0
100
AcDbVertex
100
AcDb2dVertex
 10
15.3947638412276
 20
126.7742575914653
 30
0.0
  0
SEQEND
  5
30B
330
2CD
100
AcDbEntity
  8
Ebene 2
370
     0
  0
POLYLINE
  5
30C
330
1F
100
AcDbEntity
  8
Ebene 2
370
     0
100
AcDb2dPolyline
 66
     1
 10
0.0
 20
0.0
 30
0.0
  0
VERTEX
  5
30D
330
30C
100
AcDbEntity
  8
Ebene 2
370
     0
100
AcDbVertex
100
AcDb2dVertex
 10
15.3945915863397
 20
153.6453310840149
 30
0.0
  0
VERTEX
  5
30E
330
30C
100
AcDbEntity
  8
Ebene 2
370
     0
100
AcDbVertex
100
AcDb2dVertex
 10
21.99212604772423
 20
147.0479688775182
 30
0.0
  0
VERTEX
  5
30F
330
30C
100
AcDbEntity
  8
Ebene 2
370
     0
100
AcDbVertex
100
AcDb2dVertex
 10
25.35092410684898
 20
143.6889985635056
 30
0.0
  0
VERTEX
  5
310
330
30C
100
AcDbEntity
  8
Ebene 2
370
     0
100
AcDbVertex
100
AcDb2dVertex
 10
28.70972216597373
 20
147.0476243677424
 30
0.0
  0
VERTEX
  5
311
330
30C
100
AcDbEntity
  8
Ebene 2
370
     0
100
AcDbVertex
100
AcDb2dVertex
 10
35.30708437247036
 20
153.6449865742391
 30
0.0
  0
VERTEX
  5
312
330
30C
100
AcDbEntity
  8
Ebene 2
370
     0
100
AcDbVertex
100
AcDb2dVertex
 10
41.904446578967
 20
147.0476243677424
 30
0.0
  0
VERTEX
  5
313
330
30C
100
AcDbEntity
  8
Ebene 2
370
     0
100
AcDbVertex
100
AcDb2dVertex
 10
45.26341689297964
 20
143.6886540537298
 30
0.0
  0
VERTEX
  5
314
330
30C
100
AcDbEntity
  8
Ebene 2
370
     0
100
AcDbVertex
100
AcDb2dVertex
 10
48.62238720699229
 20
147.0476243677424
 30
0.0
  0
VERTEX
  5
315
330
30C
100
AcDbEntity
  8
Ebene 2
370
     0
100
AcDbVertex
100
AcDb2dVertex
 10
55.21974941348893
 20
153.6449865742391
 30
0.0
  0
VERTEX
  5
316
330
30C
100
AcDbEntity
  8
Ebene 2
370
     0
100
AcDbVertex
100
AcDb2dVertex
 10
61.81711161998556
 20
147.0472798579667
 30
0.0
  0
VERTEX
  5
317
330
30C
100
AcDbEntity
  8
Ebene 2
370
     0
100
AcDbVertex
100
AcDb2dVertex
 10
65.1760819339982
 20
143.6886540537298
 30
0.0
  0
VERTEX
  5
318
330
30C
100
AcDbEntity
  8
Ebene 2
370
     0
100
AcDbVertex
100
AcDb2dVertex
 10
68.53487999312296
 20
147.0472798579667
 30
0.0
  0
VERTEX
  5
319
330
30C
100
AcDbEntity
  8
Ebene 2
370
     0
100
AcDbVertex
100
AcDb2dVertex
 10
75.13224219961958
 20
153.6446420644633
 30
0.0
  0
VERTEX
  5
31A
330
30C
100
AcDbEntity
  8
Ebene 2
370
     0
100
AcDbVertex
100
AcDb2dVertex
 10
81.72960440611622
 20
147.0472798579667
 30
0.0
  0
VERTEX
  5
31B
330
30C
100
AcDbEntity
  8
Ebene 2
370
     0
100
AcDbVertex
100
AcDb2dVertex
 10
85.08857472012886
 20
143.688309543954
 30
0.0
  0
VERTEX
  5
31C
330
30C
100
AcDbEntity
  8
Ebene 2
370
     0
100
AcDbVertex
100
AcDb2dVertex
 10
88.44771728902941
 20
147.0472798579667
 30
0.0
  0
VERTEX
  5
31D
330
30C
100
AcDbEntity
  8
Ebene 2
370
     0
100
AcDbVertex
100
AcDb2dVertex
 10
95.04507949552604
 20
153.6446420644633
 30
0.0
  0
VERTEX
  5
31E
330
30C
100
AcDbEntity
  8
Ebene 2
370
     0
100
AcDbVertex
100
AcDb2dVertex
 10
101.6424417020227
 20
147.0469353481909
 30
0.0
  0
VERTEX
  5
31F
330
30C
100
AcDbEntity
  8
Ebene 2
370
     0
100
AcDbVertex
100
AcDb2dVertex
 10
105.0010675062595
 20
143.6881372890661
 30
0.0
  0
VERTEX
  5
320
330
30C
100
AcDbEntity
  8
Ebene 2
370
     0
100
AcDbVertex
100
AcDb2dVertex
 10
108.360382330048
 20
147.0469353481909
 30
0.0
  0
VERTEX
  5
321
330
30C
100
AcDbEntity
  8
Ebene 2
370
     0
100
AcDbVertex
100
AcDb2dVertex
 10
114.9577445365446
 20
153.6442975546875
 30
0.0
  0
VERTEX
  5
322
330
30C
100
AcDbEntity
  8
Ebene 2
370
     0
100
AcDbVertex
100
AcDb2dVertex
 10
121.5551067430412
 20
147.0469353481909
 30
0.0
  0
VERTEX
  5
323
330
30C
100
AcDbEntity
  8
Ebene 2
370
     0
100
AcDbVertex
100
AcDb2dVertex
 10
124.9137325472781
 20
143.6881372890661
 30
0.0
  0
VERTEX
  5
324
330
30C
100
AcDbEntity
  8
Ebene 2
370
     0
100
AcDbVertex
100
AcDb2dVertex
 10
128.2727028612907
 20
147.0469353481909
 30
0.0
  0
VERTEX
  5
325
330
30C
100
AcDbEntity
  8
Ebene 2
370
     0
100
AcDbVertex
100
AcDb2dVertex
 10
134.8700650677874
 20
153.6442975546875
 30
0.0
  0
VERTEX
  5
326
330
30C
100
AcDbEntity
  8
Ebene 2
370
     0
100
AcDbVertex
100
AcDb2dVertex
 10
141.4677717840598
 20
147.0469353481909
 30
0.0
  0
VERTEX
  5
327
330
30C
100
AcDbEntity
  8
Ebene 2
370
     0
100
AcDbVertex
100
AcDb2dVertex
 10
144.8263975882967
 20
143.6881372890661
 30
0.0
  0
VERTEX
  5
328
330
30C
100
AcDbEntity
  8
Ebene 2
370
     0
100
AcDbVertex
100
AcDb2dVertex
 10
148.1853679023093
 20
147.0469353481909
 30
0.0
  0
VERTEX
  5
329
330
30C
100
AcDbEntity
  8
Ebene 2
370
     0
100
AcDbVertex
100
AcDb2dVertex
 10
154.7830746185817
 20
153.6442975546875
 30
0.0
  0
VERTEX
  5
32A
330
30C
100
AcDbEntity
  8
Ebene 2
370
     0
100
AcDbVertex
100
AcDb2dVertex
 10
161.3804368250784
 20
147.0469353481909
 30
0.0
  0
VERTEX
  5
32B
330
30C
100
AcDbEntity
  8
Ebene 2
370
     0
100
AcDbVertex
100
AcDb2dVertex
 10
164.739407139091
 20
143.6881372890661
 30
0.0
  0
VERTEX
  5
32C
330
30C
100
AcDbEntity
  8
Ebene 2
370
     0
100
AcDbVertex
100
AcDb2dVertex
 10
168.0983774531036
 20
147.0469353481909
 30
0.0
  0
VERTEX
  5
32D
330
30C
100
AcDbEntity
  8
Ebene 2
370
     0
100
AcDbVertex
100
AcDb2dVertex
 10
174.6957396596003
 20
153.6442975546875
 30
0.0
  0
VERTEX
  5
32E
330
30C
100
AcDbEntity
  8
Ebene 2
370
     0
100
AcDbVertex
100
AcDb2dVertex
 10
181.2931018660969
 20
147.0469353481909
 30
0.0
  0
VERTEX
  5
32F
330
30C
100
AcDbEntity
  8
Ebene 2
370
     0
100
AcDbVertex
100
AcDb2dVertex
 10
184.6520721801096
 20
143.6881372890661
 30
0.0
  0
VERTEX
  5
330
330
30C
100
AcDbEntity
  8
Ebene 2
370
     0
100
AcDbVertex
100
AcDb2dVertex
 10
188.0110424941222
 20
147.0469353481909
 30
0.0
  0
VERTEX
  5
331
330
30C
100
AcDbEntity
  8
Ebene 2
370
     0
100
AcDbVertex
100
AcDb2dVertex
 10
194.6084047006188
 20
153.6442975546875
 30
0.0
  0
VERTEX
  5
332
330
30C
100
AcDbEntity
  8
Ebene 2
370
     0
100
AcDbVertex
100
AcDb2dVertex
 10
200.0010162211563
 20
148.2516860341501
 30
0.0
  0
VERTEX
  5
333
330
30C
100
AcDbEntity
  8
Ebene 2
370
     0
100
AcDbVertex
100
AcDb2dVertex
 10
200.0010162211563
 20
154.9696266621754
 30
0.0
  0
VERTEX
  5
334
330
30C
100
AcDbEntity
  8
Ebene 2
370
     0
100
AcDbVertex
100
AcDb2dVertex
 10
194.6084047006188
 20
160.3622381827128
 30
0.0
  0
VERTEX
  5
335
330
30C
100
AcDbEntity
  8
Ebene 2
370
     0
100
AcDbVertex
100
AcDb2dVertex
 10
184.6520721801096
 20
150.4059056622035
 30
0.0
  0
VERTEX
  5
336
330
30C
100
AcDbEntity
  8
Ebene 2
370
     0
100
AcDbVertex
100
AcDb2dVertex
 10
174.6957396596003
 20
160.3622381827128
 30
0.0
  0
VERTEX
  5
337
330
30C
100
AcDbEntity
  8
Ebene 2
370
     0
100
AcDbVertex
100
AcDb2dVertex
 10
164.739407139091
 20
150.4059056622035
 30
0.0
  0
VERTEX
  5
338
330
30C
100
AcDbEntity
  8
Ebene 2
370
     0
100
AcDbVertex
100
AcDb2dVertex
 10
154.7830746185817
 20
160.3622381827128
 30
0.0
  0
VERTEX
  5
339
330
30C
100
AcDbEntity
  8
Ebene 2
370
     0
100
AcDbVertex
100
AcDb2dVertex
 10
144.8263975882967
 20
150.4059056622035
 30
0.0
  0
VERTEX
  5
33A
330
30C
100
AcDbEntity
  8
Ebene 2
370
     0
100
AcDbVertex
100
AcDb2dVertex
 10
134.8700650677874
 20
160.3622381827128
 30
0.0
  0
VERTEX
  5
33B
330
30C
100
AcDbEntity
  8
Ebene 2
370
     0
100
AcDbVertex
100
AcDb2dVertex
 10
124.9137325472781
 20
150.4059056622035
 30
0.0
  0
VERTEX
  5
33C
330
30C
100
AcDbEntity
  8
Ebene 2
370
     0
100
AcDbVertex
100
AcDb2dVertex
 10
114.9574000267688
 20
160.3622381827128
 30
0.0
  0
VERTEX
  5
33D
330
30C
100
AcDbEntity
  8
Ebene 2
370
     0
100
AcDbVertex
100
AcDb2dVertex
 10
105.0010675062595
 20
150.4059056622035
 30
0.0
  0
VERTEX
  5
33E
330
30C
100
AcDbEntity
  8
Ebene 2
370
     0
100
AcDbVertex
100
AcDb2dVertex
 10
95.04507949552604
 20
160.3625826924886
 30
0.0
  0
VERTEX
  5
33F
330
30C
100
AcDbEntity
  8
Ebene 2
370
     0
100
AcDbVertex
100
AcDb2dVertex
 10
85.08857472012886
 20
150.4062501719793
 30
0.0
  0
VERTEX
  5
340
330
30C
100
AcDbEntity
  8
Ebene 2
370
     0
100
AcDbVertex
100
AcDb2dVertex
 10
75.13224219961958
 20
160.3625826924886
 30
0.0
  0
VERTEX
  5
341
330
30C
100
AcDbEntity
  8
Ebene 2
370
     0
100
AcDbVertex
100
AcDb2dVertex
 10
65.1759096791103
 20
150.4062501719793
 30
0.0
  0
VERTEX
  5
342
330
30C
100
AcDbEntity
  8
Ebene 2
370
     0
100
AcDbVertex
100
AcDb2dVertex
 10
55.21957715860103
 20
160.3625826924886
 30
0.0
  0
VERTEX
  5
343
330
30C
100
AcDbEntity
  8
Ebene 2
370
     0
100
AcDbVertex
100
AcDb2dVertex
 10
45.26341689297964
 20
150.4065946817551
 30
0.0
  0
VERTEX
  5
344
330
30C
100
AcDbEntity
  8
Ebene 2
370
     0
100
AcDbVertex
100
AcDb2dVertex
 10
35.30708437247036
 20
160.3629272022644
 30
0.0
  0
VERTEX
  5
345
330
30C
100
AcDbEntity
  8
Ebene 2
370
     0
100
AcDbVertex
100
AcDb2dVertex
 10
25.35075185196109
 20
150.4065946817551
 30
0.0
  0
VERTEX
  5
346
330
30C
100
AcDbEntity
  8
Ebene 2
370
     0
100
AcDbVertex
100
AcDb2dVertex
 10
15.39441933145181
 20
160.3629272022644
 30
0.0
  0
VERTEX
  5
347
330
30C
100
AcDbEntity
  8
Ebene 2
370
     0
100
AcDbVertex
100
AcDb2dVertex
 10
10.00077428158698
 20
154.9692821523996
 30
0.0
  0
VERTEX
  5
348
330
30C
100
AcDbEntity
  8
Ebene 2
370
     0
100
AcDbVertex
100
AcDb2dVertex
 10
10.00077428158698
 20
148.2515137792622
 30
0.0
  0
VERTEX
  5
349
330
30C
100
AcDbEntity
  8
Ebene 2
370
     0
100
AcDbVertex
100
AcDb2dVertex
 10
15.3945915863397
 20
153.6453310840149
 30
0.0
  0
SEQEND
  5
34A
330
30C
100
AcDbEntity
  8
Ebene 2
370
     0
  0
POLYLINE
  5
34B
330
1F
100
AcDbEntity
  8
Ebene 2
370
     0
100
AcDb2dPolyline
 66
     1
 10
0.0
 20
0.0
 30
0.0
  0
VERTEX
  5
34C
330
34B
100
AcDbEntity
  8
Ebene 2
370
     0
100
AcDbVertex
100
AcDb2dVertex
 10
15.3945915863397
 20
140.2096220828522
 30
0.0
  0
VERTEX
  5
34D
330
34B
100
AcDbEntity
  8
Ebene 2
370
     0
100
AcDbVertex
100
AcDb2dVertex
 10
21.99212604772423
 20
133.6122598763556
 30
0.0
  0
VERTEX
  5
34E
330
34B
100
AcDbEntity
  8
Ebene 2
370
     0
100
AcDbVertex
100
AcDb2dVertex
 10
25.35109636173688
 20
130.2532895623429
 30
0.0
  0
VERTEX
  5
34F
330
34B
100
AcDbEntity
  8
Ebene 2
370
     0
100
AcDbVertex
100
AcDb2dVertex
 10
28.70989442086163
 20
133.6122598763556
 30
0.0
  0
VERTEX
  5
350
330
34B
100
AcDbEntity
  8
Ebene 2
370
     0
100
AcDbVertex
100
AcDb2dVertex
 10
35.30708437247036
 20
140.2096220828522
 30
0.0
  0
VERTEX
  5
351
330
34B
100
AcDbEntity
  8
Ebene 2
370
     0
100
AcDbVertex
100
AcDb2dVertex
 10
41.9046188338549
 20
133.6119153665798
 30
0.0
  0
VERTEX
  5
352
330
34B
100
AcDbEntity
  8
Ebene 2
370
     0
100
AcDbVertex
100
AcDb2dVertex
 10
45.26358914786754
 20
130.2529450525671
 30
0.0
  0
VERTEX
  5
353
330
34B
100
AcDbEntity
  8
Ebene 2
370
     0
100
AcDbVertex
100
AcDb2dVertex
 10
48.62255946188019
 20
133.6119153665798
 30
0.0
  0
VERTEX
  5
354
330
34B
100
AcDbEntity
  8
Ebene 2
370
     0
100
AcDbVertex
100
AcDb2dVertex
 10
55.21974941348893
 20
140.2092775730764
 30
0.0
  0
VERTEX
  5
355
330
34B
100
AcDbEntity
  8
Ebene 2
370
     0
100
AcDbVertex
100
AcDb2dVertex
 10
61.81728387487345
 20
133.6119153665798
 30
0.0
  0
VERTEX
  5
356
330
34B
100
AcDbEntity
  8
Ebene 2
370
     0
100
AcDbVertex
100
AcDb2dVertex
 10
65.1762541888861
 20
130.2529450525671
 30
0.0
  0
VERTEX
  5
357
330
34B
100
AcDbEntity
  8
Ebene 2
370
     0
100
AcDbVertex
100
AcDb2dVertex
 10
68.53505224801086
 20
133.6119153665798
 30
0.0
  0
VERTEX
  5
358
330
34B
100
AcDbEntity
  8
Ebene 2
370
     0
100
AcDbVertex
100
AcDb2dVertex
 10
75.13224219961958
 20
140.2092775730764
 30
0.0
  0
VERTEX
  5
359
330
34B
100
AcDbEntity
  8
Ebene 2
370
     0
100
AcDbVertex
100
AcDb2dVertex
 10
81.72977666100411
 20
133.611570856804
 30
0.0
  0
VERTEX
  5
35A
330
34B
100
AcDbEntity
  8
Ebene 2
370
     0
100
AcDbVertex
100
AcDb2dVertex
 10
85.08874697501676
 20
130.2527727976792
 30
0.0
  0
VERTEX
  5
35B
330
34B
100
AcDbEntity
  8
Ebene 2
370
     0
100
AcDbVertex
100
AcDb2dVertex
 10
88.44771728902941
 20
133.611570856804
 30
0.0
  0
VERTEX
  5
35C
330
34B
100
AcDbEntity
  8
Ebene 2
370
     0
100
AcDbVertex
100
AcDb2dVertex
 10
95.04507949552604
 20
140.2089330633006
 30
0.0
  0
VERTEX
  5
35D
330
34B
100
AcDbEntity
  8
Ebene 2
370
     0
100
AcDbVertex
100
AcDb2dVertex
 10
101.6424417020227
 20
133.611570856804
 30
0.0
  0
VERTEX
  5
35E
330
34B
100
AcDbEntity
  8
Ebene 2
370
     0
100
AcDbVertex
100
AcDb2dVertex
 10
105.0014120160353
 20
130.2527727976792
 30
0.0
  0
VERTEX
  5
35F
330
34B
100
AcDbEntity
  8
Ebene 2
370
     0
100
AcDbVertex
100
AcDb2dVertex
 10
108.360382330048
 20
133.611570856804
 30
0.0
  0
VERTEX
  5
360
330
34B
100
AcDbEntity
  8
Ebene 2
370
     0
100
AcDbVertex
100
AcDb2dVertex
 10
114.9577445365446
 20
140.2089330633006
 30
0.0
  0
VERTEX
  5
361
330
34B
100
AcDbEntity
  8
Ebene 2
370
     0
100
AcDbVertex
100
AcDb2dVertex
 10
121.5551067430412
 20
133.611570856804
 30
0.0
  0
VERTEX
  5
362
330
34B
100
AcDbEntity
  8
Ebene 2
370
     0
100
AcDbVertex
100
AcDb2dVertex
 10
124.9140770570539
 20
130.2527727976792
 30
0.0
  0
VERTEX
  5
363
330
34B
100
AcDbEntity
  8
Ebene 2
370
     0
100
AcDbVertex
100
AcDb2dVertex
 10
128.2730473710665
 20
133.6112263470282
 30
0.0
  0
VERTEX
  5
364
330
34B
100
AcDbEntity
  8
Ebene 2
370
     0
100
AcDbVertex
100
AcDb2dVertex
 10
134.8700650677874
 20
140.2087608084127
 30
0.0
  0
VERTEX
  5
365
330
34B
100
AcDbEntity
  8
Ebene 2
370
     0
100
AcDbVertex
100
AcDb2dVertex
 10
141.4677717840598
 20
133.6112263470282
 30
0.0
  0
VERTEX
  5
366
330
34B
100
AcDbEntity
  8
Ebene 2
370
     0
100
AcDbVertex
100
AcDb2dVertex
 10
144.8263975882967
 20
130.2524282879034
 30
0.0
  0
VERTEX
  5
367
330
34B
100
AcDbEntity
  8
Ebene 2
370
     0
100
AcDbVertex
100
AcDb2dVertex
 10
148.1853679023093
 20
133.6112263470282
 30
0.0
  0
VERTEX
  5
368
330
34B
100
AcDbEntity
  8
Ebene 2
370
     0
100
AcDbVertex
100
AcDb2dVertex
 10
154.7830746185817
 20
140.2087608084127
 30
0.0
  0
VERTEX
  5
369
330
34B
100
AcDbEntity
  8
Ebene 2
370
     0
100
AcDbVertex
100
AcDb2dVertex
 10
161.3804368250784
 20
133.6112263470282
 30
0.0
  0
VERTEX
  5
36A
330
34B
100
AcDbEntity
  8
Ebene 2
370
     0
100
AcDbVertex
100
AcDb2dVertex
 10
164.739407139091
 20
130.2524282879034
 30
0.0
  0
VERTEX
  5
36B
330
34B
100
AcDbEntity
  8
Ebene 2
370
     0
100
AcDbVertex
100
AcDb2dVertex
 10
168.0983774531036
 20
133.6112263470282
 30
0.0
  0
VERTEX
  5
36C
330
34B
100
AcDbEntity
  8
Ebene 2
370
     0
100
AcDbVertex
100
AcDb2dVertex
 10
174.6957396596003
 20
140.2087608084127
 30
0.0
  0
VERTEX
  5
36D
330
34B
100
AcDbEntity
  8
Ebene 2
370
     0
100
AcDbVertex
100
AcDb2dVertex
 10
181.2931018660969
 20
133.6112263470282
 30
0.0
  0
VERTEX
  5
36E
330
34B
100
AcDbEntity
  8
Ebene 2
370
     0
100
AcDbVertex
100
AcDb2dVertex
 10
184.6520721801096
 20
130.2524282879034
 30
0.0
  0
VERTEX
  5
36F
330
34B
100
AcDbEntity
  8
Ebene 2
370
     0
100
AcDbVertex
100
AcDb2dVertex
 10
188.0110424941222
 20
133.6112263470282
 30
0.0
  0
VERTEX
  5
370
330
34B
100
AcDbEntity
  8
Ebene 2
370
     0
100
AcDbVertex
100
AcDb2dVertex
 10
194.6084047006188
 20
140.2087608084127
 30
0.0
  0
VERTEX
  5
371
330
34B
100
AcDbEntity
  8
Ebene 2
370
     0
100
AcDbVertex
100
AcDb2dVertex
 10
200.0010162211563
 20
134.8159770329874
 30
0.0
  0
VERTEX
  5
372
330
34B
100
AcDbEntity
  8
Ebene 2
370
     0
100
AcDbVertex
100
AcDb2dVertex
 10
200.0010162211563
 20
141.5339176610127
 30
0.0
  0
VERTEX
  5
373
330
34B
100
AcDbEntity
  8
Ebene 2
370
     0
100
AcDbVertex
100
AcDb2dVertex
 10
194.6084047006188
 20
146.9265291815501
 30
0.0
  0
VERTEX
  5
374
330
34B
100
AcDbEntity
  8
Ebene 2
370
     0
100
AcDbVertex
100
AcDb2dVertex
 10
184.6520721801096
 20
136.9701966610408
 30
0.0
  0
VERTEX
  5
375
330
34B
100
AcDbEntity
  8
Ebene 2
370
     0
100
AcDbVertex
100
AcDb2dVertex
 10
174.6957396596003
 20
146.9265291815501
 30
0.0
  0
VERTEX
  5
376
330
34B
100
AcDbEntity
  8
Ebene 2
370
     0
100
AcDbVertex
100
AcDb2dVertex
 10
164.739407139091
 20
136.9701966610408
 30
0.0
  0
VERTEX
  5
377
330
34B
100
AcDbEntity
  8
Ebene 2
370
     0
100
AcDbVertex
100
AcDb2dVertex
 10
154.7830746185817
 20
146.9265291815501
 30
0.0
  0
VERTEX
  5
378
330
34B
100
AcDbEntity
  8
Ebene 2
370
     0
100
AcDbVertex
100
AcDb2dVertex
 10
144.8263975882967
 20
136.9701966610408
 30
0.0
  0
VERTEX
  5
379
330
34B
100
AcDbEntity
  8
Ebene 2
370
     0
100
AcDbVertex
100
AcDb2dVertex
 10
134.8700650677874
 20
146.9265291815501
 30
0.0
  0
VERTEX
  5
37A
330
34B
100
AcDbEntity
  8
Ebene 2
370
     0
100
AcDbVertex
100
AcDb2dVertex
 10
124.9137325472781
 20
136.9701966610408
 30
0.0
  0
VERTEX
  5
37B
330
34B
100
AcDbEntity
  8
Ebene 2
370
     0
100
AcDbVertex
100
AcDb2dVertex
 10
114.9577445365446
 20
146.9265291815501
 30
0.0
  0
VERTEX
  5
37C
330
34B
100
AcDbEntity
  8
Ebene 2
370
     0
100
AcDbVertex
100
AcDb2dVertex
 10
105.0014120160353
 20
136.9705411708166
 30
0.0
  0
VERTEX
  5
37D
330
34B
100
AcDbEntity
  8
Ebene 2
370
     0
100
AcDbVertex
100
AcDb2dVertex
 10
95.04507949552604
 20
146.9268736913259
 30
0.0
  0
VERTEX
  5
37E
330
34B
100
AcDbEntity
  8
Ebene 2
370
     0
100
AcDbVertex
100
AcDb2dVertex
 10
85.08874697501676
 20
136.9705411708166
 30
0.0
  0
VERTEX
  5
37F
330
34B
100
AcDbEntity
  8
Ebene 2
370
     0
100
AcDbVertex
100
AcDb2dVertex
 10
75.13224219961958
 20
146.9268736913259
 30
0.0
  0
VERTEX
  5
380
330
34B
100
AcDbEntity
  8
Ebene 2
370
     0
100
AcDbVertex
100
AcDb2dVertex
 10
65.1760819339982
 20
136.9708856805924
 30
0.0
  0
VERTEX
  5
381
330
34B
100
AcDbEntity
  8
Ebene 2
370
     0
100
AcDbVertex
100
AcDb2dVertex
 10
55.21974941348893
 20
146.9272182011017
 30
0.0
  0
VERTEX
  5
382
330
34B
100
AcDbEntity
  8
Ebene 2
370
     0
100
AcDbVertex
100
AcDb2dVertex
 10
45.26358914786754
 20
136.9708856805924
 30
0.0
  0
VERTEX
  5
383
330
34B
100
AcDbEntity
  8
Ebene 2
370
     0
100
AcDbVertex
100
AcDb2dVertex
 10
35.30708437247036
 20
146.9272182011017
 30
0.0
  0
VERTEX
  5
384
330
34B
100
AcDbEntity
  8
Ebene 2
370
     0
100
AcDbVertex
100
AcDb2dVertex
 10
25.35092410684898
 20
136.9712301903682
 30
0.0
  0
VERTEX
  5
385
330
34B
100
AcDbEntity
  8
Ebene 2
370
     0
100
AcDbVertex
100
AcDb2dVertex
 10
15.3945915863397
 20
146.9275627108775
 30
0.0
  0
VERTEX
  5
386
330
34B
100
AcDbEntity
  8
Ebene 2
370
     0
100
AcDbVertex
100
AcDb2dVertex
 10
10.00077428158698
 20
141.5335731512369
 30
0.0
  0
VERTEX
  5
387
330
34B
100
AcDbEntity
  8
Ebene 2
370
     0
100
AcDbVertex
100
AcDb2dVertex
 10
10.00077428158698
 20
134.8156325232116
 30
0.0
  0
VERTEX
  5
388
330
34B
100
AcDbEntity
  8
Ebene 2
370
     0
100
AcDbVertex
100
AcDb2dVertex
 10
15.3945915863397
 20
140.2096220828522
 30
0.0
  0
SEQEND
  5
389
330
34B
100
AcDbEntity
  8
Ebene 2
370
     0
  0
POLYLINE
  5
38A
330
1F
100
AcDbEntity
  8
Ebene 2
370
     0
100
AcDb2dPolyline
 66
     1
 10
0.0
 20
0.0
 30
0.0
  0
VERTEX
  5
38B
330
38A
100
AcDbEntity
  8
Ebene 2
370
     0
100
AcDbVertex
100
AcDb2dVertex
 10
105.0010675062595
 20
197.4304565290531
 30
0.0
  0
VERTEX
  5
38C
330
38A
100
AcDbEntity
  8
Ebene 2
370
     0
100
AcDbVertex
100
AcDb2dVertex
 10
107.5714549434747
 20
200.0011884760442
 30
0.0
  0
VERTEX
  5
38D
330
38A
100
AcDbEntity
  8
Ebene 2
370
     0
100
AcDbVertex
100
AcDb2dVertex
 10
102.4303355592685
 20
200.0011884760442
 30
0.0
  0
VERTEX
  5
38E
330
38A
100
AcDbEntity
  8
Ebene 2
370
     0
100
AcDbVertex
100
AcDb2dVertex
 10
105.0010675062595
 20
197.4304565290531
 30
0.0
  0
SEQEND
  5
38F
330
38A
100
AcDbEntity
  8
Ebene 2
370
     0
  0
POLYLINE
  5
390
330
1F
100
AcDbEntity
  8
Ebene 2
370
     0
100
AcDb2dPolyline
 66
     1
 10
0.0
 20
0.0
 30
0.0
  0
VERTEX
  5
391
330
390
100
AcDbEntity
  8
Ebene 2
370
     0
100
AcDbVertex
100
AcDb2dVertex
 10
45.26290012831595
 20
197.4308010388289
 30
0.0
  0
VERTEX
  5
392
330
390
100
AcDbEntity
  8
Ebene 2
370
     0
100
AcDbVertex
100
AcDb2dVertex
 10
47.83328756553117
 20
200.0011884760442
 30
0.0
  0
VERTEX
  5
393
330
390
100
AcDbEntity
  8
Ebene 2
370
     0
100
AcDbVertex
100
AcDb2dVertex
 10
42.69268494598863
 20
200.0011884760442
 30
0.0
  0
VERTEX
  5
394
330
390
100
AcDbEntity
  8
Ebene 2
370
     0
100
AcDbVertex
100
AcDb2dVertex
 10
45.26290012831595
 20
197.4308010388289
 30
0.0
  0
SEQEND
  5
395
330
390
100
AcDbEntity
  8
Ebene 2
370
     0
  0
POLYLINE
  5
396
330
1F
100
AcDbEntity
  8
Ebene 2
370
     0
100
AcDb2dPolyline
 66
     1
 10
0.0
 20
0.0
 30
0.0
  0
VERTEX
  5
397
330
396
100
AcDbEntity
  8
Ebene 2
370
     0
100
AcDbVertex
100
AcDb2dVertex
 10
65.1755651693345
 20
197.4304565290531
 30
0.0
  0
VERTEX
  5
398
330
396
100
AcDbEntity
  8
Ebene 2
370
     0
100
AcDbVertex
100
AcDb2dVertex
 10
67.74612486143762
 20
200.0011884760442
 30
0.0
  0
VERTEX
  5
399
330
396
100
AcDbEntity
  8
Ebene 2
370
     0
100
AcDbVertex
100
AcDb2dVertex
 10
62.60500547723139
 20
200.0011884760442
 30
0.0
  0
VERTEX
  5
39A
330
396
100
AcDbEntity
  8
Ebene 2
370
     0
100
AcDbVertex
100
AcDb2dVertex
 10
65.1755651693345
 20
197.4304565290531
 30
0.0
  0
SEQEND
  5
39B
330
396
100
AcDbEntity
  8
Ebene 2
370
     0
  0
POLYLINE
  5
39C
330
1F
100
AcDbEntity
  8
Ebene 2
370
     0
100
AcDb2dPolyline
 66
     1
 10
0.0
 20
0.0
 30
0.0
  0
VERTEX
  5
39D
330
39C
100
AcDbEntity
  8
Ebene 2
370
     0
100
AcDbVertex
100
AcDb2dVertex
 10
85.08823021035307
 20
197.4304565290531
 30
0.0
  0
VERTEX
  5
39E
330
39C
100
AcDbEntity
  8
Ebene 2
370
     0
100
AcDbVertex
100
AcDb2dVertex
 10
87.65878990245618
 20
200.0011884760442
 30
0.0
  0
VERTEX
  5
39F
330
39C
100
AcDbEntity
  8
Ebene 2
370
     0
100
AcDbVertex
100
AcDb2dVertex
 10
82.51767051824996
 20
200.0011884760442
 30
0.0
  0
VERTEX
  5
3A0
330
39C
100
AcDbEntity
  8
Ebene 2
370
     0
100
AcDbVertex
100
AcDb2dVertex
 10
85.08823021035307
 20
197.4304565290531
 30
0.0
  0
SEQEND
  5
3A1
330
39C
100
AcDbEntity
  8
Ebene 2
370
     0
  0
POLYLINE
  5
3A2
330
1F
100
AcDbEntity
  8
Ebene 2
370
     0
100
AcDb2dPolyline
 66
     1
 10
0.0
 20
0.0
 30
0.0
  0
VERTEX
  5
3A3
330
3A2
100
AcDbEntity
  8
Ebene 2
370
     0
100
AcDbVertex
100
AcDb2dVertex
 10
25.35040734218529
 20
197.4308010388289
 30
0.0
  0
VERTEX
  5
3A4
330
3A2
100
AcDbEntity
  8
Ebene 2
370
     0
100
AcDbVertex
100
AcDb2dVertex
 10
27.92062252451261
 20
200.0011884760442
 30
0.0
  0
VERTEX
  5
3A5
330
3A2
100
AcDbEntity
  8
Ebene 2
370
     0
100
AcDbVertex
100
AcDb2dVertex
 10
22.78019215985797
 20
200.0011884760442
 30
0.0
  0
VERTEX
  5
3A6
330
3A2
100
AcDbEntity
  8
Ebene 2
370
     0
100
AcDbVertex
100
AcDb2dVertex
 10
25.35040734218529
 20
197.4308010388289
 30
0.0
  0
SEQEND
  5
3A7
330
3A2
100
AcDbEntity
  8
Ebene 2
370
     0
  0
POLYLINE
  5
3A8
330
1F
100
AcDbEntity
  8
Ebene 2
370
     0
100
AcDb2dPolyline
 66
     1
 10
0.0
 20
0.0
 30
0.0
  0
VERTEX
  5
3A9
330
3A8
100
AcDbEntity
  8
Ebene 2
370
     0
100
AcDbVertex
100
AcDb2dVertex
 10
15.39407482167601
 20
193.9517690679513
 30
0.0
  0
VERTEX
  5
3AA
330
3A8
100
AcDbEntity
  8
Ebene 2
370
     0
100
AcDbVertex
100
AcDb2dVertex
 10
21.99178153794844
 20
187.3544068614547
 30
0.0
  0
VERTEX
  5
3AB
330
3A8
100
AcDbEntity
  8
Ebene 2
370
     0
100
AcDbVertex
100
AcDb2dVertex
 10
25.35057959707319
 20
183.9954365474421
 30
0.0
  0
VERTEX
  5
3AC
330
3A8
100
AcDbEntity
  8
Ebene 2
370
     0
100
AcDbVertex
100
AcDb2dVertex
 10
28.70937765619793
 20
187.3540623516789
 30
0.0
  0
VERTEX
  5
3AD
330
3A8
100
AcDbEntity
  8
Ebene 2
370
     0
100
AcDbVertex
100
AcDb2dVertex
 10
35.30673986269457
 20
193.9514245581755
 30
0.0
  0
VERTEX
  5
3AE
330
3A8
100
AcDbEntity
  8
Ebene 2
370
     0
100
AcDbVertex
100
AcDb2dVertex
 10
41.9042743240791
 20
187.3540623516789
 30
0.0
  0
VERTEX
  5
3AF
330
3A8
100
AcDbEntity
  8
Ebene 2
370
     0
100
AcDbVertex
100
AcDb2dVertex
 10
45.26307238320385
 20
183.9950920376663
 30
0.0
  0
VERTEX
  5
3B0
330
3A8
100
AcDbEntity
  8
Ebene 2
370
     0
100
AcDbVertex
100
AcDb2dVertex
 10
48.62204269721649
 20
187.3540623516789
 30
0.0
  0
VERTEX
  5
3B1
330
3A8
100
AcDbEntity
  8
Ebene 2
370
     0
100
AcDbVertex
100
AcDb2dVertex
 10
55.21923264882523
 20
193.9514245581755
 30
0.0
  0
VERTEX
  5
3B2
330
3A8
100
AcDbEntity
  8
Ebene 2
370
     0
100
AcDbVertex
100
AcDb2dVertex
 10
61.81676711020976
 20
187.3540623516789
 30
0.0
  0
VERTEX
  5
3B3
330
3A8
100
AcDbEntity
  8
Ebene 2
370
     0
100
AcDbVertex
100
AcDb2dVertex
 10
65.1757374242224
 20
183.9950920376663
 30
0.0
  0
VERTEX
  5
3B4
330
3A8
100
AcDbEntity
  8
Ebene 2
370
     0
100
AcDbVertex
100
AcDb2dVertex
 10
68.53453548334716
 20
187.3537178419031
 30
0.0
  0
VERTEX
  5
3B5
330
3A8
100
AcDbEntity
  8
Ebene 2
370
     0
100
AcDbVertex
100
AcDb2dVertex
 10
75.13189768984378
 20
193.9510800483997
 30
0.0
  0
VERTEX
  5
3B6
330
3A8
100
AcDbEntity
  8
Ebene 2
370
     0
100
AcDbVertex
100
AcDb2dVertex
 10
81.72925989634042
 20
187.3537178419031
 30
0.0
  0
VERTEX
  5
3B7
330
3A8
100
AcDbEntity
  8
Ebene 2
370
     0
100
AcDbVertex
100
AcDb2dVertex
 10
85.08823021035307
 20
183.9947475278905
 30
0.0
  0
VERTEX
  5
3B8
330
3A8
100
AcDbEntity
  8
Ebene 2
370
     0
100
AcDbVertex
100
AcDb2dVertex
 10
88.44702826947781
 20
187.3537178419031
 30
0.0
  0
VERTEX
  5
3B9
330
3A8
100
AcDbEntity
  8
Ebene 2
370
     0
100
AcDbVertex
100
AcDb2dVertex
 10
95.04439047597445
 20
193.9510800483997
 30
0.0
  0
VERTEX
  5
3BA
330
3A8
100
AcDbEntity
  8
Ebene 2
370
     0
100
AcDbVertex
100
AcDb2dVertex
 10
101.6420971922469
 20
187.3537178419031
 30
0.0
  0
VERTEX
  5
3BB
330
3A8
100
AcDbEntity
  8
Ebene 2
370
     0
100
AcDbVertex
100
AcDb2dVertex
 10
105.0010675062595
 20
183.9947475278905
 30
0.0
  0
VERTEX
  5
3BC
330
3A8
100
AcDbEntity
  8
Ebene 2
370
     0
100
AcDbVertex
100
AcDb2dVertex
 10
108.3596933104964
 20
187.3537178419031
 30
0.0
  0
VERTEX
  5
3BD
330
3A8
100
AcDbEntity
  8
Ebene 2
370
     0
100
AcDbVertex
100
AcDb2dVertex
 10
114.9574000267688
 20
193.9510800483997
 30
0.0
  0
VERTEX
  5
3BE
330
3A8
100
AcDbEntity
  8
Ebene 2
370
     0
100
AcDbVertex
100
AcDb2dVertex
 10
121.5547622332654
 20
187.3537178419031
 30
0.0
  0
VERTEX
  5
3BF
330
3A8
100
AcDbEntity
  8
Ebene 2
370
     0
100
AcDbVertex
100
AcDb2dVertex
 10
124.9137325472781
 20
183.9947475278905
 30
0.0
  0
VERTEX
  5
3C0
330
3A8
100
AcDbEntity
  8
Ebene 2
370
     0
100
AcDbVertex
100
AcDb2dVertex
 10
128.2727028612907
 20
187.3537178419031
 30
0.0
  0
VERTEX
  5
3C1
330
3A8
100
AcDbEntity
  8
Ebene 2
370
     0
100
AcDbVertex
100
AcDb2dVertex
 10
134.8700650677874
 20
193.9510800483997
 30
0.0
  0
VERTEX
  5
3C2
330
3A8
100
AcDbEntity
  8
Ebene 2
370
     0
100
AcDbVertex
100
AcDb2dVertex
 10
141.4677717840598
 20
187.3537178419031
 30
0.0
  0
VERTEX
  5
3C3
330
3A8
100
AcDbEntity
  8
Ebene 2
370
     0
100
AcDbVertex
100
AcDb2dVertex
 10
144.8263975882967
 20
183.9947475278905
 30
0.0
  0
VERTEX
  5
3C4
330
3A8
100
AcDbEntity
  8
Ebene 2
370
     0
100
AcDbVertex
100
AcDb2dVertex
 10
148.1853679023093
 20
187.3537178419031
 30
0.0
  0
VERTEX
  5
3C5
330
3A8
100
AcDbEntity
  8
Ebene 2
370
     0
100
AcDbVertex
100
AcDb2dVertex
 10
154.7830746185817
 20
193.9510800483997
 30
0.0
  0
VERTEX
  5
3C6
330
3A8
100
AcDbEntity
  8
Ebene 2
370
     0
100
AcDbVertex
100
AcDb2dVertex
 10
161.3804368250784
 20
187.3537178419031
 30
0.0
  0
VERTEX
  5
3C7
330
3A8
100
AcDbEntity
  8
Ebene 2
370
     0
100
AcDbVertex
100
AcDb2dVertex
 10
164.739407139091
 20
183.9947475278905
 30
0.0
  0
VERTEX
  5
3C8
330
3A8
100
AcDbEntity
  8
Ebene 2
370
     0
100
AcDbVertex
100
AcDb2dVertex
 10
168.0983774531036
 20
187.3537178419031
 30
0.0
  0
VERTEX
  5
3C9
330
3A8
100
AcDbEntity
  8
Ebene 2
370
     0
100
AcDbVertex
100
AcDb2dVertex
 10
174.6957396596003
 20
193.9510800483997
 30
0.0
  0
VERTEX
  5
3CA
330
3A8
100
AcDbEntity
  8
Ebene 2
370
     0
100
AcDbVertex
100
AcDb2dVertex
 10
181.2931018660969
 20
187.3537178419031
 30
0.0
  0
VERTEX
  5
3CB
330
3A8
100
AcDbEntity
  8
Ebene 2
370
     0
100
AcDbVertex
100
AcDb2dVertex
 10
184.6520721801096
 20
183.9947475278905
 30
0.0
  0
VERTEX
  5
3CC
330
3A8
100
AcDbEntity
  8
Ebene 2
370
     0
100
AcDbVertex
100
AcDb2dVertex
 10
188.0110424941222
 20
187.3537178419031
 30
0.0
  0
VERTEX
  5
3CD
330
3A8
100
AcDbEntity
  8
Ebene 2
370
     0
100
AcDbVertex
100
AcDb2dVertex
 10
194.6084047006188
 20
193.9510800483997
 30
0.0
  0
VERTEX
  5
3CE
330
3A8
100
AcDbEntity
  8
Ebene 2
370
     0
100
AcDbVertex
100
AcDb2dVertex
 10
200.0010162211563
 20
188.5584685278623
 30
0.0
  0
VERTEX
  5
3CF
330
3A8
100
AcDbEntity
  8
Ebene 2
370
     0
100
AcDbVertex
100
AcDb2dVertex
 10
200.0010162211563
 20
195.2762369009997
 30
0.0
  0
VERTEX
  5
3D0
330
3A8
100
AcDbEntity
  8
Ebene 2
370
     0
100
AcDbVertex
100
AcDb2dVertex
 10
195.2760646461118
 20
200.0011884760442
 30
0.0
  0
VERTEX
  5
3D1
330
3A8
100
AcDbEntity
  8
Ebene 2
370
     0
100
AcDbVertex
100
AcDb2dVertex
 10
193.9407447551259
 20
200.0011884760442
 30
0.0
  0
VERTEX
  5
3D2
330
3A8
100
AcDbEntity
  8
Ebene 2
370
     0
100
AcDbVertex
100
AcDb2dVertex
 10
184.6520721801096
 20
190.7126881559158
 30
0.0
  0
VERTEX
  5
3D3
330
3A8
100
AcDbEntity
  8
Ebene 2
370
     0
100
AcDbVertex
100
AcDb2dVertex
 10
175.3633996050933
 20
200.0011884760442
 30
0.0
  0
VERTEX
  5
3D4
330
3A8
100
AcDbEntity
  8
Ebene 2
370
     0
100
AcDbVertex
100
AcDb2dVertex
 10
174.0280797141073
 20
200.0011884760442
 30
0.0
  0
VERTEX
  5
3D5
330
3A8
100
AcDbEntity
  8
Ebene 2
370
     0
100
AcDbVertex
100
AcDb2dVertex
 10
164.739407139091
 20
190.7126881559158
 30
0.0
  0
VERTEX
  5
3D6
330
3A8
100
AcDbEntity
  8
Ebene 2
370
     0
100
AcDbVertex
100
AcDb2dVertex
 10
155.4507345640747
 20
200.0011884760442
 30
0.0
  0
VERTEX
  5
3D7
330
3A8
100
AcDbEntity
  8
Ebene 2
370
     0
100
AcDbVertex
100
AcDb2dVertex
 10
154.1150701633129
 20
200.0011884760442
 30
0.0
  0
VERTEX
  5
3D8
330
3A8
100
AcDbEntity
  8
Ebene 2
370
     0
100
AcDbVertex
100
AcDb2dVertex
 10
144.8263975882967
 20
190.7126881559158
 30
0.0
  0
VERTEX
  5
3D9
330
3A8
100
AcDbEntity
  8
Ebene 2
370
     0
100
AcDbVertex
100
AcDb2dVertex
 10
135.5380695230561
 20
200.0011884760442
 30
0.0
  0
VERTEX
  5
3DA
330
3A8
100
AcDbEntity
  8
Ebene 2
370
     0
100
AcDbVertex
100
AcDb2dVertex
 10
134.2020606125186
 20
200.0011884760442
 30
0.0
  0
VERTEX
  5
3DB
330
3A8
100
AcDbEntity
  8
Ebene 2
370
     0
100
AcDbVertex
100
AcDb2dVertex
 10
124.9137325472781
 20
190.7126881559158
 30
0.0
  0
VERTEX
  5
3DC
330
3A8
100
AcDbEntity
  8
Ebene 2
370
     0
100
AcDbVertex
100
AcDb2dVertex
 10
115.6254044820376
 20
200.0011884760442
 30
0.0
  0
VERTEX
  5
3DD
330
3A8
100
AcDbEntity
  8
Ebene 2
370
     0
100
AcDbVertex
100
AcDb2dVertex
 10
114.2893955715
 20
200.0011884760442
 30
0.0
  0
VERTEX
  5
3DE
330
3A8
100
AcDbEntity
  8
Ebene 2
370
     0
100
AcDbVertex
100
AcDb2dVertex
 10
105.0010675062595
 20
190.7126881559158
 30
0.0
  0
VERTEX
  5
3DF
330
3A8
100
AcDbEntity
  8
Ebene 2
370
     0
100
AcDbVertex
100
AcDb2dVertex
 10
95.71222267635532
 20
200.0011884760442
 30
0.0
  0
VERTEX
  5
3E0
330
3A8
100
AcDbEntity
  8
Ebene 2
370
     0
100
AcDbVertex
100
AcDb2dVertex
 10
94.37655827559358
 20
200.0011884760442
 30
0.0
  0
VERTEX
  5
3E1
330
3A8
100
AcDbEntity
  8
Ebene 2
370
     0
100
AcDbVertex
100
AcDb2dVertex
 10
85.08823021035307
 20
190.7126881559158
 30
0.0
  0
VERTEX
  5
3E2
330
3A8
100
AcDbEntity
  8
Ebene 2
370
     0
100
AcDbVertex
100
AcDb2dVertex
 10
75.79972989022467
 20
200.0011884760442
 30
0.0
  0
VERTEX
  5
3E3
330
3A8
100
AcDbEntity
  8
Ebene 2
370
     0
100
AcDbVertex
100
AcDb2dVertex
 10
74.46406548946291
 20
200.0011884760442
 30
0.0
  0
VERTEX
  5
3E4
330
3A8
100
AcDbEntity
  8
Ebene 2
370
     0
100
AcDbVertex
100
AcDb2dVertex
 10
65.1755651693345
 20
190.7126881559158
 30
0.0
  0
VERTEX
  5
3E5
330
3A8
100
AcDbEntity
  8
Ebene 2
370
     0
100
AcDbVertex
100
AcDb2dVertex
 10
55.8874093589819
 20
200.0011884760442
 30
0.0
  0
VERTEX
  5
3E6
330
3A8
100
AcDbEntity
  8
Ebene 2
370
     0
100
AcDbVertex
100
AcDb2dVertex
 10
54.55105593866856
 20
200.0011884760442
 30
0.0
  0
VERTEX
  5
3E7
330
3A8
100
AcDbEntity
  8
Ebene 2
370
     0
100
AcDbVertex
100
AcDb2dVertex
 10
45.26307238320385
 20
190.7130326656916
 30
0.0
  0
VERTEX
  5
3E8
330
3A8
100
AcDbEntity
  8
Ebene 2
370
     0
100
AcDbVertex
100
AcDb2dVertex
 10
35.97491657285124
 20
200.0011884760442
 30
0.0
  0
VERTEX
  5
3E9
330
3A8
100
AcDbEntity
  8
Ebene 2
370
     0
100
AcDbVertex
100
AcDb2dVertex
 10
34.6385631525379
 20
200.0011884760442
 30
0.0
  0
VERTEX
  5
3EA
330
3A8
100
AcDbEntity
  8
Ebene 2
370
     0
100
AcDbVertex
100
AcDb2dVertex
 10
25.35040734218529
 20
190.7130326656916
 30
0.0
  0
VERTEX
  5
3EB
330
3A8
100
AcDbEntity
  8
Ebene 2
370
     0
100
AcDbVertex
100
AcDb2dVertex
 10
16.06259604160848
 20
200.0011884760442
 30
0.0
  0
VERTEX
  5
3EC
330
3A8
100
AcDbEntity
  8
Ebene 2
370
     0
100
AcDbVertex
100
AcDb2dVertex
 10
14.72572585663144
 20
200.0011884760442
 30
0.0
  0
VERTEX
  5
3ED
330
3A8
100
AcDbEntity
  8
Ebene 2
370
     0
100
AcDbVertex
100
AcDb2dVertex
 10
10.00077428158698
 20
195.2762369009997
 30
0.0
  0
VERTEX
  5
3EE
330
3A8
100
AcDbEntity
  8
Ebene 2
370
     0
100
AcDbVertex
100
AcDb2dVertex
 10
10.00077428158698
 20
188.5582962729744
 30
0.0
  0
VERTEX
  5
3EF
330
3A8
100
AcDbEntity
  8
Ebene 2
370
     0
100
AcDbVertex
100
AcDb2dVertex
 10
15.39407482167601
 20
193.9517690679513
 30
0.0
  0
SEQEND
  5
3F0
330
3A8
100
AcDbEntity
  8
Ebene 2
370
     0
  0
POLYLINE
  5
3F1
330
1F
100
AcDbEntity
  8
Ebene 2
370
     0
100
AcDb2dPolyline
 66
     1
 10
0.0
 20
0.0
 30
0.0
  0
VERTEX
  5
3F2
330
3F1
100
AcDbEntity
  8
Ebene 2
370
     0
100
AcDbVertex
100
AcDb2dVertex
 10
124.9137325472781
 20
197.4304565290531
 30
0.0
  0
VERTEX
  5
3F3
330
3F1
100
AcDbEntity
  8
Ebene 2
370
     0
100
AcDbVertex
100
AcDb2dVertex
 10
127.4841199844933
 20
200.0011884760442
 30
0.0
  0
VERTEX
  5
3F4
330
3F1
100
AcDbEntity
  8
Ebene 2
370
     0
100
AcDbVertex
100
AcDb2dVertex
 10
122.3433451100629
 20
200.0011884760442
 30
0.0
  0
VERTEX
  5
3F5
330
3F1
100
AcDbEntity
  8
Ebene 2
370
     0
100
AcDbVertex
100
AcDb2dVertex
 10
124.9137325472781
 20
197.4304565290531
 30
0.0
  0
SEQEND
  5
3F6
330
3F1
100
AcDbEntity
  8
Ebene 2
370
     0
  0
POLYLINE
  5
3F7
330
1F
100
AcDbEntity
  8
Ebene 2
370
     0
100
AcDb2dPolyline
 66
     1
 10
0.0
 20
0.0
 30
0.0
  0
VERTEX
  5
3F8
330
3F7
100
AcDbEntity
  8
Ebene 2
370
     0
100
AcDbVertex
100
AcDb2dVertex
 10
194.6090937201704
 20
12.5708172090264
 30
0.0
  0
VERTEX
  5
3F9
330
3F7
100
AcDbEntity
  8
Ebene 2
370
     0
100
AcDbVertex
100
AcDb2dVertex
 10
192.0387062829552
 20
10.00042977181119
 30
0.0
  0
VERTEX
  5
3FA
330
3F7
100
AcDbEntity
  8
Ebene 2
370
     0
100
AcDbVertex
100
AcDb2dVertex
 10
197.1791366476099
 20
10.00042977181119
 30
0.0
  0
VERTEX
  5
3FB
330
3F7
100
AcDbEntity
  8
Ebene 2
370
     0
100
AcDbVertex
100
AcDb2dVertex
 10
194.6090937201704
 20
12.5708172090264
 30
0.0
  0
SEQEND
  5
3FC
330
3F7
100
AcDbEntity
  8
Ebene 2
370
     0
  0
POLYLINE
  5
3FD
330
1F
100
AcDbEntity
  8
Ebene 2
370
     0
100
AcDb2dPolyline
 66
     1
 10
0.0
 20
0.0
 30
0.0
  0
VERTEX
  5
3FE
330
3FD
100
AcDbEntity
  8
Ebene 2
370
     0
100
AcDbVertex
100
AcDb2dVertex
 10
174.6964286791519
 20
12.5711617188022
 30
0.0
  0
VERTEX
  5
3FF
330
3FD
100
AcDbEntity
  8
Ebene 2
370
     0
100
AcDbVertex
100
AcDb2dVertex
 10
172.1253522223851
 20
10.00042977181119
 30
0.0
  0
VERTEX
  5
400
330
3FD
100
AcDbEntity
  8
Ebene 2
370
     0
100
AcDbVertex
100
AcDb2dVertex
 10
177.2671606261429
 20
10.00042977181119
 30
0.0
  0
VERTEX
  5
401
330
3FD
100
AcDbEntity
  8
Ebene 2
370
     0
100
AcDbVertex
100
AcDb2dVertex
 10
174.6964286791519
 20
12.5711617188022
 30
0.0
  0
SEQEND
  5
402
330
3FD
100
AcDbEntity
  8
Ebene 2
370
     0
  0
POLYLINE
  5
403
330
1F
100
AcDbEntity
  8
Ebene 2
370
     0
100
AcDb2dPolyline
 66
     1
 10
0.0
 20
0.0
 30
0.0
  0
VERTEX
  5
404
330
403
100
AcDbEntity
  8
Ebene 2
370
     0
100
AcDbVertex
100
AcDb2dVertex
 10
12.82437640401239
 20
10.00042977181119
 30
0.0
  0
VERTEX
  5
405
330
403
100
AcDbEntity
  8
Ebene 2
370
     0
100
AcDbVertex
100
AcDb2dVertex
 10
17.9672183370976
 20
10.00042977181119
 30
0.0
  0
VERTEX
  5
406
330
403
100
AcDbEntity
  8
Ebene 2
370
     0
100
AcDbVertex
100
AcDb2dVertex
 10
15.39579737055499
 20
12.57185073835379
 30
0.0
  0
VERTEX
  5
407
330
403
100
AcDbEntity
  8
Ebene 2
370
     0
100
AcDbVertex
100
AcDb2dVertex
 10
12.82437640401239
 20
10.00042977181119
 30
0.0
  0
SEQEND
  5
408
330
403
100
AcDbEntity
  8
Ebene 2
370
     0
  0
POLYLINE
  5
409
330
1F
100
AcDbEntity
  8
Ebene 2
370
     0
100
AcDb2dPolyline
 66
     1
 10
0.0
 20
0.0
 30
0.0
  0
VERTEX
  5
40A
330
409
100
AcDbEntity
  8
Ebene 2
370
     0
100
AcDbVertex
100
AcDb2dVertex
 10
32.73686919014305
 20
10.00042977181119
 30
0.0
  0
VERTEX
  5
40B
330
409
100
AcDbEntity
  8
Ebene 2
370
     0
100
AcDbVertex
100
AcDb2dVertex
 10
37.87988337811615
 20
10.00042977181119
 30
0.0
  0
VERTEX
  5
40C
330
409
100
AcDbEntity
  8
Ebene 2
370
     0
100
AcDbVertex
100
AcDb2dVertex
 10
35.30829015668565
 20
12.57185073835379
 30
0.0
  0
VERTEX
  5
40D
330
409
100
AcDbEntity
  8
Ebene 2
370
     0
100
AcDbVertex
100
AcDb2dVertex
 10
32.73686919014305
 20
10.00042977181119
 30
0.0
  0
SEQEND
  5
40E
330
409
100
AcDbEntity
  8
Ebene 2
370
     0
  0
POLYLINE
  5
40F
330
1F
100
AcDbEntity
  8
Ebene 2
370
     0
100
AcDb2dPolyline
 66
     1
 10
0.0
 20
0.0
 30
0.0
  0
VERTEX
  5
410
330
40F
100
AcDbEntity
  8
Ebene 2
370
     0
100
AcDbVertex
100
AcDb2dVertex
 10
52.64936197627371
 20
10.00042977181119
 30
0.0
  0
VERTEX
  5
411
330
40F
100
AcDbEntity
  8
Ebene 2
370
     0
100
AcDbVertex
100
AcDb2dVertex
 10
57.79220390935892
 20
10.00042977181119
 30
0.0
  0
VERTEX
  5
412
330
40F
100
AcDbEntity
  8
Ebene 2
370
     0
100
AcDbVertex
100
AcDb2dVertex
 10
55.22095519770421
 20
12.57185073835379
 30
0.0
  0
VERTEX
  5
413
330
40F
100
AcDbEntity
  8
Ebene 2
370
     0
100
AcDbVertex
100
AcDb2dVertex
 10
52.64936197627371
 20
10.00042977181119
 30
0.0
  0
SEQEND
  5
414
330
40F
100
AcDbEntity
  8
Ebene 2
370
     0
  0
POLYLINE
  5
415
330
1F
100
AcDbEntity
  8
Ebene 2
370
     0
100
AcDb2dPolyline
 66
     1
 10
0.0
 20
0.0
 30
0.0
  0
VERTEX
  5
416
330
415
100
AcDbEntity
  8
Ebene 2
370
     0
100
AcDbVertex
100
AcDb2dVertex
 10
77.70486895037747
 20
10.00042977181119
 30
0.0
  0
VERTEX
  5
417
330
415
100
AcDbEntity
  8
Ebene 2
370
     0
100
AcDbVertex
100
AcDb2dVertex
 10
75.13362023872277
 20
12.57185073835379
 30
0.0
  0
VERTEX
  5
418
330
415
100
AcDbEntity
  8
Ebene 2
370
     0
100
AcDbVertex
100
AcDb2dVertex
 10
72.56219927218017
 20
10.00042977181119
 30
0.0
  0
VERTEX
  5
419
330
415
100
AcDbEntity
  8
Ebene 2
370
     0
100
AcDbVertex
100
AcDb2dVertex
 10
77.70486895037747
 20
10.00042977181119
 30
0.0
  0
SEQEND
  5
41A
330
415
100
AcDbEntity
  8
Ebene 2
370
     0
  0
POLYLINE
  5
41B
330
1F
100
AcDbEntity
  8
Ebene 2
370
     0
100
AcDb2dPolyline
 66
     1
 10
0.0
 20
0.0
 30
0.0
  0
VERTEX
  5
41C
330
41B
100
AcDbEntity
  8
Ebene 2
370
     0
100
AcDbVertex
100
AcDb2dVertex
 10
92.47469205831082
 20
10.00042977181119
 30
0.0
  0
VERTEX
  5
41D
330
41B
100
AcDbEntity
  8
Ebene 2
370
     0
100
AcDbVertex
100
AcDb2dVertex
 10
97.61753399139603
 20
10.00042977181119
 30
0.0
  0
VERTEX
  5
41E
330
41B
100
AcDbEntity
  8
Ebene 2
370
     0
100
AcDbVertex
100
AcDb2dVertex
 10
95.04611302485343
 20
12.57185073835379
 30
0.0
  0
VERTEX
  5
41F
330
41B
100
AcDbEntity
  8
Ebene 2
370
     0
100
AcDbVertex
100
AcDb2dVertex
 10
92.47469205831082
 20
10.00042977181119
 30
0.0
  0
SEQEND
  5
420
330
41B
100
AcDbEntity
  8
Ebene 2
370
     0
  0
POLYLINE
  5
421
330
1F
100
AcDbEntity
  8
Ebene 2
370
     0
100
AcDb2dPolyline
 66
     1
 10
0.0
 20
0.0
 30
0.0
  0
VERTEX
  5
422
330
421
100
AcDbEntity
  8
Ebene 2
370
     0
100
AcDbVertex
100
AcDb2dVertex
 10
164.739407139091
 20
197.4304565290531
 30
0.0
  0
VERTEX
  5
423
330
421
100
AcDbEntity
  8
Ebene 2
370
     0
100
AcDbVertex
100
AcDb2dVertex
 10
167.310139086082
 20
200.0011884760442
 30
0.0
  0
VERTEX
  5
424
330
421
100
AcDbEntity
  8
Ebene 2
370
     0
100
AcDbVertex
100
AcDb2dVertex
 10
162.1683306823242
 20
200.0011884760442
 30
0.0
  0
VERTEX
  5
425
330
421
100
AcDbEntity
  8
Ebene 2
370
     0
100
AcDbVertex
100
AcDb2dVertex
 10
164.739407139091
 20
197.4304565290531
 30
0.0
  0
SEQEND
  5
426
330
421
100
AcDbEntity
  8
Ebene 2
370
     0
  0
POLYLINE
  5
427
330
1F
100
AcDbEntity
  8
Ebene 2
370
     0
100
AcDb2dPolyline
 66
     1
 10
0.0
 20
0.0
 30
0.0
  0
VERTEX
  5
428
330
427
100
AcDbEntity
  8
Ebene 2
370
     0
100
AcDbVertex
100
AcDb2dVertex
 10
144.8263975882967
 20
197.4304565290531
 30
0.0
  0
VERTEX
  5
429
330
427
100
AcDbEntity
  8
Ebene 2
370
     0
100
AcDbVertex
100
AcDb2dVertex
 10
147.3967850255119
 20
200.0011884760442
 30
0.0
  0
VERTEX
  5
42A
330
427
100
AcDbEntity
  8
Ebene 2
370
     0
100
AcDbVertex
100
AcDb2dVertex
 10
142.2560101510814
 20
200.0011884760442
 30
0.0
  0
VERTEX
  5
42B
330
427
100
AcDbEntity
  8
Ebene 2
370
     0
100
AcDbVertex
100
AcDb2dVertex
 10
144.8263975882967
 20
197.4304565290531
 30
0.0
  0
SEQEND
  5
42C
330
427
100
AcDbEntity
  8
Ebene 2
370
     0
  0
POLYLINE
  5
42D
330
1F
100
AcDbEntity
  8
Ebene 2
370
     0
100
AcDb2dPolyline
 66
     1
 10
0.0
 20
0.0
 30
0.0
  0
VERTEX
  5
42E
330
42D
100
AcDbEntity
  8
Ebene 2
370
     0
100
AcDbVertex
100
AcDb2dVertex
 10
184.6520721801096
 20
197.4304565290531
 30
0.0
  0
VERTEX
  5
42F
330
42D
100
AcDbEntity
  8
Ebene 2
370
     0
100
AcDbVertex
100
AcDb2dVertex
 10
187.2228041271006
 20
200.0011884760442
 30
0.0
  0
VERTEX
  5
430
330
42D
100
AcDbEntity
  8
Ebene 2
370
     0
100
AcDbVertex
100
AcDb2dVertex
 10
182.0809957233427
 20
200.0011884760442
 30
0.0
  0
VERTEX
  5
431
330
42D
100
AcDbEntity
  8
Ebene 2
370
     0
100
AcDbVertex
100
AcDb2dVertex
 10
184.6520721801096
 20
197.4304565290531
 30
0.0
  0
SEQEND
  5
432
330
42D
100
AcDbEntity
  8
Ebene 2
370
     0
  0
HATCH
  5
433
330
1F
100
AcDbEntity
  8
Ebene 2
 62
   253
420
 10263967
100
AcDbHatch
 10
0.0
 20
0.0
 30
0.0
210
0.0
220
0.0
230
1.0
  2
SOLID
 70
     1
 71
     0
 91
       33
 92
        1
 93
       60
 72
     1
 10
10.00077428158698
 20
54.20206753578704
 11
10.00077428158698
 21
60.91966365403654
 72
     1
 10
10.00077428158698
 20
60.91966365403654
 11
15.3952806058913
 21
66.31399772345294
 72
     1
 10
15.3952806058913
 20
66.31399772345294
 11
25.35161312640058
 21
56.35800971271946
 72
     1
 10
25.35161312640058
 20
56.35800971271946
 11
35.30794564690986
 21
66.31399772345294
 72
     1
 10
35.30794564690986
 20
66.31399772345294
 11
45.26427816741914
 21
56.35800971271946
 72
     1
 10
45.26427816741914
 20
56.35800971271946
 11
55.22043843304051
 21
66.31399772345294
 72
     1
 10
55.22043843304051
 20
66.31399772345294
 11
65.17677095354979
 21
56.35732069316787
 72
     1
 10
65.17677095354979
 20
56.35732069316787
 11
75.13310347405907
 21
66.31399772345294
 72
     1
 10
75.13310347405907
 20
66.31399772345294
 11
85.08943599456836
 21
56.35732069316787
 72
     1
 10
85.08943599456836
 20
56.35732069316787
 11
95.04576851507764
 21
66.31330870390136
 72
     1
 10
95.04576851507764
 20
66.31330870390136
 11
105.0021010355869
 21
56.35732069316787
 72
     1
 10
105.0021010355869
 20
56.35732069316787
 11
114.9584335560962
 21
66.31330870390136
 72
     1
 10
114.9584335560962
 20
66.31330870390136
 11
124.9144215668297
 21
56.35732069316787
 72
     1
 10
124.9144215668297
 20
56.35732069316787
 11
134.8710985971148
 21
66.31330870390136
 72
     1
 10
134.8710985971148
 20
66.31330870390136
 11
144.8270866078482
 21
56.35663167361628
 72
     1
 10
144.8270866078482
 20
56.35663167361628
 11
154.7834191283575
 21
66.31330870390136
 72
     1
 10
154.7834191283575
 20
66.31330870390136
 11
164.7397516488668
 21
56.35663167361628
 72
     1
 10
164.7397516488668
 20
56.35663167361628
 11
174.6960841693761
 21
66.31261968434977
 72
     1
 10
174.6960841693761
 20
66.31261968434977
 11
184.6524166898853
 21
56.35663167361628
 72
     1
 10
184.6524166898853
 20
56.35663167361628
 11
194.6084047006188
 21
66.31261968434977
 72
     1
 10
194.6084047006188
 20
66.31261968434977
 11
200.0010162211563
 21
60.92000816381233
 72
     1
 10
200.0010162211563
 20
60.92000816381233
 11
200.0010162211563
 21
54.20241204556284
 72
     1
 10
200.0010162211563
 20
54.20241204556284
 11
194.6087492103946
 21
59.59502356610027
 72
     1
 10
194.6087492103946
 20
59.59502356610027
 11
188.011387003898
 21
52.99766135960363
 72
     1
 10
188.011387003898
 20
52.99766135960363
 11
184.6524166898853
 21
49.63903555536678
 72
     1
 10
184.6524166898853
 20
49.63903555536678
 11
181.2934463758727
 21
52.99766135960363
 72
     1
 10
181.2934463758727
 20
52.99766135960363
 11
174.6960841693761
 21
59.59502356610027
 72
     1
 10
174.6960841693761
 20
59.59502356610027
 11
168.0987219628794
 21
52.99800586937943
 72
     1
 10
168.0987219628794
 20
52.99800586937943
 11
164.7397516488668
 21
49.63903555536678
 72
     1
 10
164.7397516488668
 20
49.63903555536678
 11
161.3807813348542
 21
52.99800586937943
 72
     1
 10
161.3807813348542
 20
52.99800586937943
 11
154.7834191283575
 21
59.59571258565186
 72
     1
 10
154.7834191283575
 20
59.59571258565186
 11
148.1860569218609
 21
52.99800586937943
 72
     1
 10
148.1860569218609
 20
52.99800586937943
 11
144.8270866078482
 21
49.63903555536678
 72
     1
 10
144.8270866078482
 20
49.63903555536678
 11
141.4684608036114
 21
52.99800586937943
 72
     1
 10
141.4684608036114
 20
52.99800586937943
 11
134.8710985971148
 21
59.59571258565186
 72
     1
 10
134.8710985971148
 20
59.59571258565186
 11
128.2737363906181
 21
52.99800586937943
 72
     1
 10
128.2737363906181
 20
52.99800586937943
 11
124.9147660766055
 21
49.63972457491838
 72
     1
 10
124.9147660766055
 20
49.63972457491838
 11
121.5557957625928
 21
52.99800586937943
 72
     1
 10
121.5557957625928
 20
52.99800586937943
 11
114.9584335560962
 21
59.59571258565186
 72
     1
 10
114.9584335560962
 20
59.59571258565186
 11
108.3610713495996
 21
52.99800586937943
 72
     1
 10
108.3610713495996
 20
52.99800586937943
 11
105.0021010355869
 21
49.63972457491838
 72
     1
 10
105.0021010355869
 20
49.63972457491838
 11
101.6431307215743
 21
52.99800586937943
 72
     1
 10
101.6431307215743
 20
52.99800586937943
 11
95.04576851507764
 21
59.59605709542765
 72
     1
 10
95.04576851507764
 20
59.59605709542765
 11
88.4482340536931
 21
52.99869488893102
 72
     1
 10
88.4482340536931
 20
52.99869488893102
 11
85.08943599456836
 21
49.63972457491838
 72
     1
 10
85.08943599456836
 20
49.63972457491838
 11
81.73046568055571
 21
52.99869488893102
 72
     1
 10
81.73046568055571
 20
52.99869488893102
 11
75.13310347405907
 21
59.59605709542765
 72
     1
 10
75.13310347405907
 20
59.59605709542765
 11
68.53574126756244
 21
52.99869488893102
 72
     1
 10
68.53574126756244
 20
52.99869488893102
 11
65.17694320843769
 21
49.63972457491838
 72
     1
 10
65.17694320843769
 20
49.63972457491838
 11
61.81797289442505
 21
52.99869488893102
 72
     1
 10
61.81797289442505
 20
52.99869488893102
 11
55.22061068792841
 21
59.59605709542765
 72
     1
 10
55.22061068792841
 20
59.59605709542765
 11
48.62324848143178
 21
52.99869488893102
 72
     1
 10
48.62324848143178
 20
52.99869488893102
 11
45.26427816741914
 21
49.64006908469418
 72
     1
 10
45.26427816741914
 20
49.64006908469418
 11
41.90530785340649
 21
52.99869488893102
 72
     1
 10
41.90530785340649
 20
52.99869488893102
 11
35.30794564690986
 21
59.59605709542765
 72
     1
 10
35.30794564690986
 20
59.59605709542765
 11
28.71058344041322
 21
52.99869488893102
 72
     1
 10
28.71058344041322
 20
52.99869488893102
 11
25.35178538128847
 21
49.64006908469418
 72
     1
 10
25.35178538128847
 20
49.64006908469418
 11
21.99281506727583
 21
52.99869488893102
 72
     1
 10
21.99281506727583
 20
52.99869488893102
 11
15.3952806058913
 21
59.59674611497925
 72
     1
 10
15.3952806058913
 20
59.59674611497925
 11
10.00077428158698
 21
54.20206753578704
 97
        0
 92
        1
 93
       60
 72
     1
 10
15.3952806058913
 20
73.03193835147825
 11
21.99264281238793
 21
66.4345761449816
 72
     1
 10
21.99264281238793
 20
66.4345761449816
 11
25.35161312640058
 21
63.07595034074476
 72
     1
 10
25.35161312640058
 20
63.07595034074476
 11
28.71041118552532
 21
66.4345761449816
 72
     1
 10
28.71041118552532
 20
66.4345761449816
 11
35.30777339202196
 21
73.03193835147825
 72
     1
 10
35.30777339202196
 20
73.03193835147825
 11
41.90513559851859
 21
66.4345761449816
 72
     1
 10
41.90513559851859
 20
66.4345761449816
 11
45.26410591253124
 21
63.07526132119317
 72
     1
 10
45.26410591253124
 20
63.07526132119317
 11
48.62307622654388
 21
66.4345761449816
 72
     1
 10
48.62307622654388
 20
66.4345761449816
 11
55.22043843304051
 21
73.03193835147825
 72
     1
 10
55.22043843304051
 20
73.03193835147825
 11
61.81780063953715
 21
66.4345761449816
 72
     1
 10
61.81780063953715
 20
66.4345761449816
 11
65.17677095354979
 21
63.07526132119317
 72
     1
 10
65.17677095354979
 20
63.07526132119317
 11
68.53556901267454
 21
66.43388712543002
 72
     1
 10
68.53556901267454
 20
66.43388712543002
 11
75.13293121917118
 21
73.03124933192665
 72
     1
 10
75.13293121917118
 20
73.03124933192665
 11
81.73029342566781
 21
66.43388712543002
 72
     1
 10
81.73029342566781
 20
66.43388712543002
 11
85.08926373968046
 21
63.07526132119317
 72
     1
 10
85.08926373968046
 20
63.07526132119317
 11
88.4482340536931
 21
66.43388712543002
 72
     1
 10
88.4482340536931
 20
66.43388712543002
 11
95.04576851507764
 21
73.03124933192665
 72
     1
 10
95.04576851507764
 20
73.03124933192665
 11
101.6431307215743
 21
66.43388712543002
 72
     1
 10
101.6431307215743
 20
66.43388712543002
 11
105.0017565258111
 21
63.07526132119317
 72
     1
 10
105.0017565258111
 20
63.07526132119317
 11
108.3610713495996
 21
66.43388712543002
 72
     1
 10
108.3610713495996
 20
66.43388712543002
 11
114.9584335560962
 21
73.03124933192665
 72
     1
 10
114.9584335560962
 20
73.03124933192665
 11
121.5557957625928
 21
66.43388712543002
 72
     1
 10
121.5557957625928
 20
66.43388712543002
 11
124.9144215668297
 21
63.07457230164157
 72
     1
 10
124.9144215668297
 20
63.07457230164157
 11
128.2733918808423
 21
66.43388712543002
 72
     1
 10
128.2733918808423
 20
66.43388712543002
 11
134.870754087339
 21
73.03124933192665
 72
     1
 10
134.870754087339
 20
73.03124933192665
 11
141.4681162938356
 21
66.43388712543002
 72
     1
 10
141.4681162938356
 20
66.43388712543002
 11
144.8270866078482
 21
63.07457230164157
 72
     1
 10
144.8270866078482
 20
63.07457230164157
 11
148.1860569218609
 21
66.43388712543002
 72
     1
 10
148.1860569218609
 20
66.43388712543002
 11
154.7834191283575
 21
73.03124933192665
 72
     1
 10
154.7834191283575
 20
73.03124933192665
 11
161.3807813348542
 21
66.43319810587842
 72
     1
 10
161.3807813348542
 20
66.43319810587842
 11
164.7397516488668
 21
63.07457230164157
 72
     1
 10
164.7397516488668
 20
63.07457230164157
 11
168.0987219628794
 21
66.43319810587842
 72
     1
 10
168.0987219628794
 20
66.43319810587842
 11
174.6957396596003
 21
73.03056031237506
 72
     1
 10
174.6957396596003
 20
73.03056031237506
 11
181.2934463758727
 21
66.43319810587842
 72
     1
 10
181.2934463758727
 20
66.43319810587842
 11
184.6524166898853
 21
63.07457230164157
 72
     1
 10
184.6524166898853
 20
63.07457230164157
 11
188.011387003898
 21
66.43319810587842
 72
     1
 10
188.011387003898
 20
66.43319810587842
 11
194.6084047006188
 21
73.03056031237506
 72
     1
 10
194.6084047006188
 20
73.03056031237506
 11
200.0010162211563
 21
67.63829330161342
 72
     1
 10
200.0010162211563
 20
67.63829330161342
 11
200.0010162211563
 21
74.35554491008712
 72
     1
 10
200.0010162211563
 20
74.35554491008712
 11
194.6084047006188
 21
79.74850094040035
 72
     1
 10
194.6084047006188
 20
79.74850094040035
 11
184.6524166898853
 21
69.79251292966687
 72
     1
 10
184.6524166898853
 20
69.79251292966687
 11
174.6957396596003
 21
79.74850094040035
 72
     1
 10
174.6957396596003
 20
79.74850094040035
 11
164.7397516488668
 21
69.79251292966687
 72
     1
 10
164.7397516488668
 20
69.79251292966687
 11
154.7834191283575
 21
79.74850094040035
 72
     1
 10
154.7834191283575
 20
79.74850094040035
 11
144.8270866078482
 21
69.79251292966687
 72
     1
 10
144.8270866078482
 20
69.79251292966687
 11
134.870754087339
 21
79.74918995995195
 72
     1
 10
134.870754087339
 20
79.74918995995195
 11
124.9144215668297
 21
69.79251292966687
 72
     1
 10
124.9144215668297
 20
69.79251292966687
 11
114.9580890463204
 21
79.74918995995195
 72
     1
 10
114.9580890463204
 20
79.74918995995195
 11
105.0017565258111
 21
69.79320194921846
 72
     1
 10
105.0017565258111
 20
69.79320194921846
 11
95.04576851507764
 21
79.74918995995195
 72
     1
 10
95.04576851507764
 20
79.74918995995195
 11
85.08926373968046
 21
69.79320194921846
 72
     1
 10
85.08926373968046
 20
69.79320194921846
 11
75.13293121917118
 21
79.74918995995195
 72
     1
 10
75.13293121917118
 20
79.74918995995195
 11
65.17659869866189
 21
69.79320194921846
 72
     1
 10
65.17659869866189
 20
69.79320194921846
 11
55.22026617815262
 21
79.74987897950353
 72
     1
 10
55.22026617815262
 20
79.74987897950353
 11
45.26410591253124
 21
69.79320194921846
 72
     1
 10
45.26410591253124
 20
69.79320194921846
 11
35.30777339202196
 21
79.74987897950353
 72
     1
 10
35.30777339202196
 20
79.74987897950353
 11
25.35144087151268
 21
69.79320194921846
 72
     1
 10
25.35144087151268
 20
69.79320194921846
 11
15.3951083510034
 21
79.74987897950353
 72
     1
 10
15.3951083510034
 20
79.74987897950353
 11
10.00077428158698
 21
74.35554491008712
 72
     1
 10
10.00077428158698
 20
74.35554491008712
 11
10.00077428158698
 21
67.63725977228603
 72
     1
 10
10.00077428158698
 20
67.63725977228603
 11
15.3952806058913
 21
73.03193835147825
 97
        0
 92
        1
 93
       60
 72
     1
 10
15.3951083510034
 20
86.46747509775302
 11
21.99247055750003
 21
79.8701128912564
 72
     1
 10
21.99247055750003
 20
79.8701128912564
 11
25.35144087151268
 21
76.51079806746796
 72
     1
 10
25.35144087151268
 20
76.51079806746796
 11
28.71041118552532
 21
79.8701128912564
 72
     1
 10
28.71041118552532
 20
79.8701128912564
 11
35.30760113713406
 21
86.46747509775302
 72
     1
 10
35.30760113713406
 20
86.46747509775302
 11
41.90513559851859
 21
79.8701128912564
 72
     1
 10
41.90513559851859
 20
79.8701128912564
 11
45.26410591253124
 21
76.51079806746796
 72
     1
 10
45.26410591253124
 20
76.51079806746796
 11
48.62290397165599
 21
79.8701128912564
 72
     1
 10
48.62290397165599
 20
79.8701128912564
 11
55.22026617815262
 21
86.46678607820144
 72
     1
 10
55.22026617815262
 20
86.46678607820144
 11
61.81780063953715
 21
79.86942387170481
 72
     1
 10
61.81780063953715
 20
79.86942387170481
 11
65.17659869866189
 21
76.51079806746796
 72
     1
 10
65.17659869866189
 20
76.51079806746796
 11
68.53556901267454
 21
79.86942387170481
 72
     1
 10
68.53556901267454
 20
79.86942387170481
 11
75.13275896428328
 21
86.46678607820144
 72
     1
 10
75.13275896428328
 20
86.46678607820144
 11
81.73029342566781
 21
79.86942387170481
 72
     1
 10
81.73029342566781
 20
79.86942387170481
 11
85.08926373968046
 21
76.51079806746796
 72
     1
 10
85.08926373968046
 20
76.51079806746796
 11
88.4480617988052
 21
79.86942387170481
 72
     1
 10
88.4480617988052
 20
79.86942387170481
 11
95.04542400530184
 21
86.46678607820144
 72
     1
 10
95.04542400530184
 20
86.46678607820144
 11
101.6431307215743
 21
79.86942387170481
 72
     1
 10
101.6431307215743
 20
79.86942387170481
 11
105.0017565258111
 21
76.51045355769216
 72
     1
 10
105.0017565258111
 20
76.51045355769216
 11
108.3607268398238
 21
79.86942387170481
 72
     1
 10
108.3607268398238
 20
79.86942387170481
 11
114.9580890463204
 21
86.46678607820144
 72
     1
 10
114.9580890463204
 20
86.46678607820144
 11
121.555451252817
 21
79.86942387170481
 72
     1
 10
121.555451252817
 20
79.86942387170481
 11
124.9144215668297
 21
76.51045355769216
 72
     1
 10
124.9144215668297
 20
76.51045355769216
 11
128.2733918808423
 21
79.86942387170481
 72
     1
 10
128.2733918808423
 20
79.86942387170481
 11
134.8704095775632
 21
86.46644156842564
 72
     1
 10
134.8704095775632
 20
86.46644156842564
 11
141.4681162938356
 21
79.86873485215321
 72
     1
 10
141.4681162938356
 20
79.86873485215321
 11
144.8270866078482
 21
76.51045355769216
 72
     1
 10
144.8270866078482
 20
76.51045355769216
 11
148.1860569218609
 21
79.86873485215321
 72
     1
 10
148.1860569218609
 20
79.86873485215321
 11
154.7834191283575
 21
86.46644156842564
 72
     1
 10
154.7834191283575
 20
86.46644156842564
 11
161.3807813348542
 21
79.86873485215321
 72
     1
 10
161.3807813348542
 20
79.86873485215321
 11
164.7397516488668
 21
76.51045355769216
 72
     1
 10
164.7397516488668
 20
76.51045355769216
 11
168.0983774531036
 21
79.86873485215321
 72
     1
 10
168.0983774531036
 20
79.86873485215321
 11
174.6957396596003
 21
86.46644156842564
 72
     1
 10
174.6957396596003
 20
86.46644156842564
 11
181.2931018660969
 21
79.86873485215321
 72
     1
 10
181.2931018660969
 20
79.86873485215321
 11
184.6520721801096
 21
76.50976453814057
 72
     1
 10
184.6520721801096
 20
76.50976453814057
 11
188.0110424941222
 21
79.86873485215321
 72
     1
 10
188.0110424941222
 20
79.86873485215321
 11
194.6084047006188
 21
86.46644156842564
 72
     1
 10
194.6084047006188
 20
86.46644156842564
 11
200.0010162211563
 21
81.07348553811241
 72
     1
 10
200.0010162211563
 20
81.07348553811241
 11
200.0010162211563
 21
87.79108165636191
 72
     1
 10
200.0010162211563
 20
87.79108165636191
 11
194.6084047006188
 21
93.18403768667514
 72
     1
 10
194.6084047006188
 20
93.18403768667514
 11
184.6520721801096
 21
83.22736065639006
 72
     1
 10
184.6520721801096
 20
83.22736065639006
 11
174.6957396596003
 21
93.18403768667514
 72
     1
 10
174.6957396596003
 20
93.18403768667514
 11
164.739407139091
 21
83.22736065639006
 72
     1
 10
164.739407139091
 20
83.22736065639006
 11
154.7830746185817
 21
93.18403768667514
 72
     1
 10
154.7830746185817
 20
93.18403768667514
 11
144.8270866078482
 21
83.22804967594165
 72
     1
 10
144.8270866078482
 20
83.22804967594165
 11
134.8704095775632
 21
93.18403768667514
 72
     1
 10
134.8704095775632
 20
93.18403768667514
 11
124.9144215668297
 21
83.22804967594165
 72
     1
 10
124.9144215668297
 20
83.22804967594165
 11
114.9577445365446
 21
93.18472670622673
 72
     1
 10
114.9577445365446
 20
93.18472670622673
 11
105.0017565258111
 21
83.22804967594165
 72
     1
 10
105.0017565258111
 20
83.22804967594165
 11
95.04542400530184
 21
93.18472670622673
 72
     1
 10
95.04542400530184
 20
93.18472670622673
 11
85.08926373968046
 21
83.22873869549325
 72
     1
 10
85.08926373968046
 20
83.22873869549325
 11
75.13275896428328
 21
93.18472670622673
 72
     1
 10
75.13275896428328
 20
93.18472670622673
 11
65.17659869866189
 21
83.22873869549325
 72
     1
 10
65.17659869866189
 20
83.22873869549325
 11
55.22009392326472
 21
93.18472670622673
 72
     1
 10
55.22009392326472
 20
93.18472670622673
 11
45.26410591253124
 21
83.22873869549325
 72
     1
 10
45.26410591253124
 20
83.22873869549325
 11
35.30760113713406
 21
93.18541572577833
 72
     1
 10
35.30760113713406
 20
93.18541572577833
 11
25.35144087151268
 21
83.22873869549325
 72
     1
 10
25.35144087151268
 20
83.22873869549325
 11
15.3949360961155
 21
93.18541572577833
 72
     1
 10
15.3949360961155
 20
93.18541572577833
 11
10.00077428158698
 21
87.79142616613771
 72
     1
 10
10.00077428158698
 20
87.79142616613771
 11
10.00077428158698
 21
81.07314102833662
 72
     1
 10
10.00077428158698
 20
81.07314102833662
 11
15.3951083510034
 21
86.46747509775302
 97
        0
 92
        1
 93
        3
 72
     1
 10
137.4421750538816
 20
10.00042977181119
 11
134.8714431068906
 21
12.5711617188022
 72
     1
 10
134.8714431068906
 20
12.5711617188022
 11
132.3003666501237
 21
10.00042977181119
 72
     1
 10
132.3003666501237
 20
10.00042977181119
 11
137.4421750538816
 21
10.00042977181119
 97
        0
 92
        1
 93
        3
 72
     1
 10
112.388046118881
 20
10.00042977181119
 11
117.529510012863
 21
10.00042977181119
 72
     1
 10
117.529510012863
 20
10.00042977181119
 11
114.958778065872
 21
12.5711617188022
 72
     1
 10
114.958778065872
 20
12.5711617188022
 11
112.388046118881
 21
10.00042977181119
 97
        0
 92
        1
 93
       60
 72
     1
 10
15.39545286077919
 20
46.16120936870446
 11
21.99298732216372
 21
39.56384716220783
 72
     1
 10
21.99298732216372
 20
39.56384716220783
 11
25.35178538128847
 21
36.20453233841938
 72
     1
 10
25.35178538128847
 20
36.20453233841938
 11
28.71075569530112
 21
39.56384716220783
 72
     1
 10
28.71075569530112
 20
39.56384716220783
 11
35.30794564690986
 21
46.16120936870446
 72
     1
 10
35.30794564690986
 20
46.16120936870446
 11
41.90548010829438
 21
39.56315814265623
 72
     1
 10
41.90548010829438
 20
39.56315814265623
 11
45.26445042230704
 21
36.20453233841938
 72
     1
 10
45.26445042230704
 20
36.20453233841938
 11
48.62342073631968
 21
39.56315814265623
 72
     1
 10
48.62342073631968
 20
39.56315814265623
 11
55.22061068792841
 21
46.16052034915287
 72
     1
 10
55.22061068792841
 20
46.16052034915287
 11
61.81814514931295
 21
39.56315814265623
 72
     1
 10
61.81814514931295
 20
39.56315814265623
 11
65.17711546332559
 21
36.20453233841938
 72
     1
 10
65.17711546332559
 20
36.20453233841938
 11
68.53591352245034
 21
39.56315814265623
 72
     1
 10
68.53591352245034
 20
39.56315814265623
 11
75.13310347405907
 21
46.16052034915287
 72
     1
 10
75.13310347405907
 20
46.16052034915287
 11
81.73063793544361
 21
39.56315814265623
 72
     1
 10
81.73063793544361
 20
39.56315814265623
 11
85.08960824945625
 21
36.20384331886779
 72
     1
 10
85.08960824945625
 20
36.20384331886779
 11
88.4482340536931
 21
39.56315814265623
 72
     1
 10
88.4482340536931
 20
39.56315814265623
 11
95.04576851507764
 21
46.16052034915287
 72
     1
 10
95.04576851507764
 20
46.16052034915287
 11
101.6431307215743
 21
39.56315814265623
 72
     1
 10
101.6431307215743
 20
39.56315814265623
 11
105.0024455453627
 21
36.20384331886779
 72
     1
 10
105.0024455453627
 20
36.20384331886779
 11
108.3610713495996
 21
39.56315814265623
 72
     1
 10
108.3610713495996
 20
39.56315814265623
 11
114.9584335560962
 21
46.16052034915287
 72
     1
 10
114.9584335560962
 20
46.16052034915287
 11
121.5557957625928
 21
39.56315814265623
 72
     1
 10
121.5557957625928
 20
39.56315814265623
 11
124.9147660766055
 21
36.20384331886779
 72
     1
 10
124.9147660766055
 20
36.20384331886779
 11
128.2737363906181
 21
39.56246912310464
 72
     1
 10
128.2737363906181
 20
39.56246912310464
 11
134.8710985971148
 21
46.15983132960127
 72
     1
 10
134.8710985971148
 20
46.15983132960127
 11
141.4684608036114
 21
39.56246912310464
 72
     1
 10
141.4684608036114
 20
39.56246912310464
 11
144.827431117624
 21
36.20384331886779
 72
     1
 10
144.827431117624
 20
36.20384331886779
 11
148.1864014316367
 21
39.56246912310464
 72
     1
 10
148.1864014316367
 20
39.56246912310464
 11
154.7837636381333
 21
46.15983132960127
 72
     1
 10
154.7837636381333
 20
46.15983132960127
 11
161.3811258446299
 21
39.56246912310464
 72
     1
 10
161.3811258446299
 20
39.56246912310464
 11
164.7400961586426
 21
36.20384331886779
 72
     1
 10
164.7400961586426
 20
36.20384331886779
 11
168.0987219628794
 21
39.56246912310464
 72
     1
 10
168.0987219628794
 20
39.56246912310464
 11
174.6960841693761
 21
46.15983132960127
 72
     1
 10
174.6960841693761
 20
46.15983132960127
 11
181.2934463758727
 21
39.56246912310464
 72
     1
 10
181.2934463758727
 20
39.56246912310464
 11
184.6524166898853
 21
36.2031542993162
 72
     1
 10
184.6524166898853
 20
36.2031542993162
 11
188.011387003898
 21
39.56246912310464
 72
     1
 10
188.011387003898
 20
39.56246912310464
 11
194.6087492103946
 21
46.15983132960127
 72
     1
 10
194.6087492103946
 20
46.15983132960127
 11
200.0010162211563
 21
40.76687529928805
 72
     1
 10
200.0010162211563
 20
40.76687529928805
 11
200.0010162211563
 21
47.48516043708914
 72
     1
 10
200.0010162211563
 20
47.48516043708914
 11
194.6087492103946
 21
52.87708293807498
 72
     1
 10
194.6087492103946
 20
52.87708293807498
 11
184.6524166898853
 21
42.92109492734149
 72
     1
 10
184.6524166898853
 20
42.92109492734149
 11
174.6960841693761
 21
52.87777195762657
 72
     1
 10
174.6960841693761
 20
52.87777195762657
 11
164.7397516488668
 21
42.92109492734149
 72
     1
 10
164.7397516488668
 20
42.92109492734149
 11
154.7834191283575
 21
52.87777195762657
 72
     1
 10
154.7834191283575
 20
52.87777195762657
 11
144.827431117624
 21
42.92178394689309
 72
     1
 10
144.827431117624
 20
42.92178394689309
 11
134.8710985971148
 21
52.87777195762657
 72
     1
 10
134.8710985971148
 20
52.87777195762657
 11
124.9147660766055
 21
42.92178394689309
 72
     1
 10
124.9147660766055
 20
42.92178394689309
 11
114.9584335560962
 21
52.87777195762657
 72
     1
 10
114.9584335560962
 20
52.87777195762657
 11
105.0024455453627
 21
42.92178394689309
 72
     1
 10
105.0024455453627
 20
42.92178394689309
 11
95.04576851507764
 21
52.87846097717816
 72
     1
 10
95.04576851507764
 20
52.87846097717816
 11
85.08960824945625
 21
42.92178394689309
 72
     1
 10
85.08960824945625
 20
42.92178394689309
 11
75.13310347405907
 21
52.87846097717816
 72
     1
 10
75.13310347405907
 20
52.87846097717816
 11
65.17694320843769
 21
42.92247296644468
 72
     1
 10
65.17694320843769
 20
42.92247296644468
 11
55.22061068792841
 21
52.87846097717816
 72
     1
 10
55.22061068792841
 20
52.87846097717816
 11
45.26445042230704
 21
42.92247296644468
 72
     1
 10
45.26445042230704
 20
42.92247296644468
 11
35.30794564690986
 21
52.87846097717816
 72
     1
 10
35.30794564690986
 20
52.87846097717816
 11
25.35178538128847
 21
42.92247296644468
 72
     1
 10
25.35178538128847
 20
42.92247296644468
 11
15.3952806058913
 21
52.87914999672975
 72
     1
 10
15.3952806058913
 20
52.87914999672975
 11
10.00077428158698
 21
47.48412690776175
 72
     1
 10
10.00077428158698
 20
47.48412690776175
 11
10.00077428158698
 21
40.76653078951225
 72
     1
 10
10.00077428158698
 20
40.76653078951225
 11
15.39545286077919
 21
46.16120936870446
 97
        0
 92
        1
 93
        3
 72
     1
 10
152.2130316911423
 20
10.00042977181119
 11
157.3544955851243
 21
10.00042977181119
 72
     1
 10
157.3544955851243
 20
10.00042977181119
 11
154.7837636381333
 21
12.5711617188022
 72
     1
 10
154.7837636381333
 20
12.5711617188022
 11
152.2130316911423
 21
10.00042977181119
 97
        0
 92
        1
 93
       60
 72
     1
 10
15.39562511566709
 20
32.72532811265388
 11
21.99298732216372
 21
26.12796590615724
 72
     1
 10
21.99298732216372
 20
26.12796590615724
 11
25.35195763617637
 21
22.76934010192039
 72
     1
 10
25.35195763617637
 20
22.76934010192039
 11
28.71075569530112
 21
26.12796590615724
 72
     1
 10
28.71075569530112
 20
26.12796590615724
 11
35.30811790179775
 21
32.72532811265388
 72
     1
 10
35.30811790179775
 20
32.72532811265388
 11
41.90548010829438
 21
26.12796590615724
 72
     1
 10
41.90548010829438
 20
26.12796590615724
 11
45.26445042230704
 21
22.7689955921446
 72
     1
 10
45.26445042230704
 20
22.7689955921446
 11
48.62342073631968
 21
26.12796590615724
 72
     1
 10
48.62342073631968
 20
26.12796590615724
 11
55.22078294281631
 21
32.72532811265388
 72
     1
 10
55.22078294281631
 20
32.72532811265388
 11
61.81814514931295
 21
26.12796590615724
 72
     1
 10
61.81814514931295
 20
26.12796590615724
 11
65.17711546332559
 21
22.7689955921446
 72
     1
 10
65.17711546332559
 20
22.7689955921446
 11
68.53591352245034
 21
26.12727688660565
 72
     1
 10
68.53591352245034
 20
26.12727688660565
 11
75.13327572894697
 21
32.72498360287808
 72
     1
 10
75.13327572894697
 20
32.72498360287808
 11
81.73081019033151
 21
26.12727688660565
 72
     1
 10
81.73081019033151
 20
26.12727688660565
 11
85.08960824945625
 21
22.7689955921446
 72
     1
 10
85.08960824945625
 20
22.7689955921446
 11
88.4482340536931
 21
26.12727688660565
 72
     1
 10
88.4482340536931
 20
26.12727688660565
 11
95.04576851507764
 21
32.72498360287808
 72
     1
 10
95.04576851507764
 20
32.72498360287808
 11
101.6431307215743
 21
26.12727688660565
 72
     1
 10
101.6431307215743
 20
26.12727688660565
 11
105.0024455453627
 21
22.7689955921446
 72
     1
 10
105.0024455453627
 20
22.7689955921446
 11
108.3610713495996
 21
26.12727688660565
 72
     1
 10
108.3610713495996
 20
26.12727688660565
 11
114.9584335560962
 21
32.72498360287808
 72
     1
 10
114.9584335560962
 20
32.72498360287808
 11
121.5557957625928
 21
26.12727688660565
 72
     1
 10
121.5557957625928
 20
26.12727688660565
 11
124.9151105863813
 21
22.768306572593
 72
     1
 10
124.9151105863813
 20
22.768306572593
 11
128.2737363906181
 21
26.12727688660565
 72
     1
 10
128.2737363906181
 20
26.12727688660565
 11
134.8710985971148
 21
32.72498360287808
 72
     1
 10
134.8710985971148
 20
32.72498360287808
 11
141.4684608036114
 21
26.12693237682985
 72
     1
 10
141.4684608036114
 20
26.12693237682985
 11
144.827431117624
 21
22.768306572593
 72
     1
 10
144.827431117624
 20
22.768306572593
 11
148.1864014316367
 21
26.12693237682985
 72
     1
 10
148.1864014316367
 20
26.12693237682985
 11
154.7837636381333
 21
32.72429458332649
 72
     1
 10
154.7837636381333
 20
32.72429458332649
 11
161.3811258446299
 21
26.12693237682985
 72
     1
 10
161.3811258446299
 20
26.12693237682985
 11
164.7400961586426
 21
22.768306572593
 72
     1
 10
164.7400961586426
 20
22.768306572593
 11
168.0990664726552
 21
26.12693237682985
 72
     1
 10
168.0990664726552
 20
26.12693237682985
 11
174.6964286791519
 21
32.72429458332649
 72
     1
 10
174.6964286791519
 20
32.72429458332649
 11
181.2937908856485
 21
26.12693237682985
 72
     1
 10
181.2937908856485
 20
26.12693237682985
 11
184.6527611996611
 21
22.76761755304141
 72
     1
 10
184.6527611996611
 20
22.76761755304141
 11
188.011387003898
 21
26.12693237682985
 72
     1
 10
188.011387003898
 20
26.12693237682985
 11
194.6090937201704
 21
32.72429458332649
 72
     1
 10
194.6090937201704
 20
32.72429458332649
 11
200.0010162211563
 21
27.33202757256485
 72
     1
 10
200.0010162211563
 20
27.33202757256485
 11
200.0010162211563
 21
34.04927918103855
 72
     1
 10
200.0010162211563
 20
34.04927918103855
 11
194.6087492103946
 21
39.44189070157599
 72
     1
 10
194.6087492103946
 20
39.44189070157599
 11
184.6527611996611
 21
29.48521367129091
 72
     1
 10
184.6527611996611
 20
29.48521367129091
 11
174.6964286791519
 21
39.44189070157599
 72
     1
 10
174.6964286791519
 20
39.44189070157599
 11
164.7400961586426
 21
29.4859026908425
 72
     1
 10
164.7400961586426
 20
29.4859026908425
 11
154.7837636381333
 21
39.44189070157599
 72
     1
 10
154.7837636381333
 20
39.44189070157599
 11
144.827431117624
 21
29.4859026908425
 72
     1
 10
144.827431117624
 20
29.4859026908425
 11
134.8710985971148
 21
39.44189070157599
 72
     1
 10
134.8710985971148
 20
39.44189070157599
 11
124.9147660766055
 21
29.4859026908425
 72
     1
 10
124.9147660766055
 20
29.4859026908425
 11
114.9584335560962
 21
39.44257972112757
 72
     1
 10
114.9584335560962
 20
39.44257972112757
 11
105.0024455453627
 21
29.4859026908425
 72
     1
 10
105.0024455453627
 20
29.4859026908425
 11
95.04576851507764
 21
39.44257972112757
 72
     1
 10
95.04576851507764
 20
39.44257972112757
 11
85.08960824945625
 21
29.48659171039409
 72
     1
 10
85.08960824945625
 20
29.48659171039409
 11
75.13327572894697
 21
39.44257972112757
 72
     1
 10
75.13327572894697
 20
39.44257972112757
 11
65.17711546332559
 21
29.48659171039409
 72
     1
 10
65.17711546332559
 20
29.48659171039409
 11
55.22061068792841
 21
39.44257972112757
 72
     1
 10
55.22061068792841
 20
39.44257972112757
 11
45.26445042230704
 21
29.48659171039409
 72
     1
 10
45.26445042230704
 20
29.48659171039409
 11
35.30811790179775
 21
39.44326874067917
 72
     1
 10
35.30811790179775
 20
39.44326874067917
 11
25.35178538128847
 21
29.48659171039409
 72
     1
 10
25.35178538128847
 20
29.48659171039409
 11
15.39545286077919
 21
39.44326874067917
 72
     1
 10
15.39545286077919
 20
39.44326874067917
 11
10.00077428158698
 21
34.04859016148696
 72
     1
 10
10.00077428158698
 20
34.04859016148696
 11
10.00077428158698
 21
27.33099404323746
 72
     1
 10
10.00077428158698
 20
27.33099404323746
 11
15.39562511566709
 21
32.72532811265388
 97
        0
 92
        1
 93
       60
 72
     1
 10
15.3949360961155
 20
99.90335635380362
 11
21.99247055750003
 21
93.30599414730698
 72
     1
 10
21.99247055750003
 20
93.30599414730698
 11
25.35144087151268
 21
89.94667932351854
 72
     1
 10
25.35144087151268
 20
89.94667932351854
 11
28.71023893063742
 21
93.30530512775539
 72
     1
 10
28.71023893063742
 20
93.30530512775539
 11
35.30760113713406
 21
99.90266733425203
 72
     1
 10
35.30760113713406
 20
99.90266733425203
 11
41.90496334363069
 21
93.30530512775539
 72
     1
 10
41.90496334363069
 20
93.30530512775539
 11
45.26393365764334
 21
89.94667932351854
 72
     1
 10
45.26393365764334
 20
89.94667932351854
 11
48.62290397165599
 21
93.30530512775539
 72
     1
 10
48.62290397165599
 20
93.30530512775539
 11
55.22009392326472
 21
99.90266733425203
 72
     1
 10
55.22009392326472
 20
99.90266733425203
 11
61.81762838464925
 21
93.30530512775539
 72
     1
 10
61.81762838464925
 20
93.30530512775539
 11
65.17659869866189
 21
89.94667932351854
 72
     1
 10
65.17659869866189
 20
89.94667932351854
 11
68.53539675778664
 21
93.30530512775539
 72
     1
 10
68.53539675778664
 20
93.30530512775539
 11
75.13275896428328
 21
99.90266733425203
 72
     1
 10
75.13275896428328
 20
99.90266733425203
 11
81.73012117077991
 21
93.30530512775539
 72
     1
 10
81.73012117077991
 20
93.30530512775539
 11
85.08909148479256
 21
89.94599030396695
 72
     1
 10
85.08909148479256
 20
89.94599030396695
 11
88.4480617988052
 21
93.30530512775539
 72
     1
 10
88.4480617988052
 20
93.30530512775539
 11
95.04507949552604
 21
99.90266733425203
 72
     1
 10
95.04507949552604
 20
99.90266733425203
 11
101.6427862117985
 21
93.30530512775539
 72
     1
 10
101.6427862117985
 20
93.30530512775539
 11
105.0017565258111
 21
89.94599030396695
 72
     1
 10
105.0017565258111
 20
89.94599030396695
 11
108.3607268398238
 21
93.30530512775539
 72
     1
 10
108.3607268398238
 20
93.30530512775539
 11
114.9577445365446
 21
99.90197831470043
 72
     1
 10
114.9577445365446
 20
99.90197831470043
 11
121.555451252817
 21
93.3046161082038
 72
     1
 10
121.555451252817
 20
93.3046161082038
 11
124.9144215668297
 21
89.94599030396695
 72
     1
 10
124.9144215668297
 20
89.94599030396695
 11
128.2730473710665
 21
93.3046161082038
 72
     1
 10
128.2730473710665
 20
93.3046161082038
 11
134.8704095775632
 21
99.90197831470043
 72
     1
 10
134.8704095775632
 20
99.90197831470043
 11
141.4677717840598
 21
93.3046161082038
 72
     1
 10
141.4677717840598
 20
93.3046161082038
 11
144.8270866078482
 21
89.94599030396695
 72
     1
 10
144.8270866078482
 20
89.94599030396695
 11
148.1857124120851
 21
93.3046161082038
 72
     1
 10
148.1857124120851
 20
93.3046161082038
 11
154.7830746185817
 21
99.90197831470043
 72
     1
 10
154.7830746185817
 20
99.90197831470043
 11
161.3804368250784
 21
93.3046161082038
 72
     1
 10
161.3804368250784
 20
93.3046161082038
 11
164.739407139091
 21
89.94530128441535
 72
     1
 10
164.739407139091
 20
89.94530128441535
 11
168.0983774531036
 21
93.3046161082038
 72
     1
 10
168.0983774531036
 20
93.3046161082038
 11
174.6957396596003
 21
99.90197831470043
 72
     1
 10
174.6957396596003
 20
99.90197831470043
 11
181.2931018660969
 21
93.3046161082038
 72
     1
 10
181.2931018660969
 20
93.3046161082038
 11
184.6520721801096
 21
89.94530128441535
 72
     1
 10
184.6520721801096
 20
89.94530128441535
 11
188.0110424941222
 21
93.3046161082038
 72
     1
 10
188.0110424941222
 20
93.3046161082038
 11
194.6084047006188
 21
99.90197831470043
 72
     1
 10
194.6084047006188
 20
99.90197831470043
 11
200.0010162211563
 21
94.509366794163
 72
     1
 10
200.0010162211563
 20
94.509366794163
 11
200.0010162211563
 21
101.2269629124125
 72
     1
 10
200.0010162211563
 20
101.2269629124125
 11
194.6084047006188
 21
106.6197466878378
 72
     1
 10
194.6084047006188
 20
106.6197466878378
 11
184.6520721801096
 21
96.66324191244065
 72
     1
 10
184.6520721801096
 20
96.66324191244065
 11
174.6957396596003
 21
106.6197466878378
 72
     1
 10
174.6957396596003
 20
106.6197466878378
 11
164.739407139091
 21
96.66324191244065
 72
     1
 10
164.739407139091
 20
96.66324191244065
 11
154.7830746185817
 21
106.6197466878378
 72
     1
 10
154.7830746185817
 20
106.6197466878378
 11
144.8270866078482
 21
96.66393093199224
 72
     1
 10
144.8270866078482
 20
96.66393093199224
 11
134.8704095775632
 21
106.6197466878378
 72
     1
 10
134.8704095775632
 20
106.6197466878378
 11
124.9144215668297
 21
96.66393093199224
 72
     1
 10
124.9144215668297
 20
96.66393093199224
 11
114.9577445365446
 21
106.6197466878378
 72
     1
 10
114.9577445365446
 20
106.6197466878378
 11
105.0017565258111
 21
96.66393093199224
 72
     1
 10
105.0017565258111
 20
96.66393093199224
 11
95.04507949552604
 21
106.6204357073894
 72
     1
 10
95.04507949552604
 20
106.6204357073894
 11
85.08909148479256
 21
96.66393093199224
 72
     1
 10
85.08909148479256
 20
96.66393093199224
 11
75.13275896428328
 21
106.6204357073894
 72
     1
 10
75.13275896428328
 20
106.6204357073894
 11
65.176426443774
 21
96.66393093199224
 72
     1
 10
65.176426443774
 20
96.66393093199224
 11
55.22009392326472
 21
106.6204357073894
 72
     1
 10
55.22009392326472
 20
106.6204357073894
 11
45.26393365764334
 21
96.66461995154383
 72
     1
 10
45.26393365764334
 20
96.66461995154383
 11
35.30760113713406
 21
106.6204357073894
 72
     1
 10
35.30760113713406
 20
106.6204357073894
 11
25.35126861662478
 21
96.66461995154383
 72
     1
 10
25.35126861662478
 20
96.66461995154383
 11
15.3949360961155
 21
106.621124726941
 72
     1
 10
15.3949360961155
 20
106.621124726941
 11
10.00077428158698
 21
101.2269629124125
 72
     1
 10
10.00077428158698
 20
101.2269629124125
 11
10.00077428158698
 21
94.5090222843872
 72
     1
 10
10.00077428158698
 20
94.5090222843872
 11
15.3949360961155
 21
99.90335635380362
 97
        0
 92
        1
 93
       60
 72
     1
 10
184.6520721801096
 20
177.2769791547531
 11
174.6957396596003
 21
187.2333116752623
 72
     1
 10
174.6957396596003
 20
187.2333116752623
 11
164.739407139091
 21
177.2769791547531
 72
     1
 10
164.739407139091
 20
177.2769791547531
 11
154.7830746185817
 21
187.2333116752623
 72
     1
 10
154.7830746185817
 20
187.2333116752623
 11
144.8263975882967
 21
177.2769791547531
 72
     1
 10
144.8263975882967
 20
177.2769791547531
 11
134.8700650677874
 21
187.2333116752623
 72
     1
 10
134.8700650677874
 20
187.2333116752623
 11
124.9137325472781
 21
177.2769791547531
 72
     1
 10
124.9137325472781
 20
177.2769791547531
 11
114.9574000267688
 21
187.2333116752623
 72
     1
 10
114.9574000267688
 20
187.2333116752623
 11
105.0010675062595
 21
177.2769791547531
 72
     1
 10
105.0010675062595
 20
177.2769791547531
 11
95.04439047597445
 21
187.2333116752623
 72
     1
 10
95.04439047597445
 20
187.2333116752623
 11
85.08840246524096
 21
177.2773236645289
 72
     1
 10
85.08840246524096
 20
177.2773236645289
 11
75.13189768984378
 21
187.2336561850381
 72
     1
 10
75.13189768984378
 20
187.2336561850381
 11
65.1757374242224
 21
177.2773236645289
 72
     1
 10
65.1757374242224
 20
177.2773236645289
 11
55.21923264882523
 21
187.2336561850381
 72
     1
 10
55.21923264882523
 20
187.2336561850381
 11
45.26324463809175
 21
177.2776681743047
 72
     1
 10
45.26324463809175
 20
177.2776681743047
 11
35.30673986269457
 21
187.233828439926
 72
     1
 10
35.30673986269457
 20
187.233828439926
 11
25.35057959707319
 21
177.2776681743047
 72
     1
 10
25.35057959707319
 20
177.2776681743047
 11
15.39407482167601
 21
187.233828439926
 72
     1
 10
15.39407482167601
 20
187.233828439926
 11
10.00077428158698
 21
181.840527899837
 72
     1
 10
10.00077428158698
 20
181.840527899837
 11
10.00077428158698
 21
175.1229317815875
 72
     1
 10
10.00077428158698
 20
175.1229317815875
 11
15.39424707656391
 21
180.5164045765644
 72
     1
 10
15.39424707656391
 20
180.5164045765644
 11
21.99195379283634
 21
173.918697860292
 72
     1
 10
21.99195379283634
 20
173.918697860292
 11
25.35057959707319
 21
170.5597275462794
 72
     1
 10
25.35057959707319
 20
170.5597275462794
 11
28.70954991108583
 21
173.918697860292
 72
     1
 10
28.70954991108583
 20
173.918697860292
 11
35.30673986269457
 21
180.5160600667887
 72
     1
 10
35.30673986269457
 20
180.5160600667887
 11
41.904446578967
 21
173.918697860292
 72
     1
 10
41.904446578967
 20
173.918697860292
 11
45.26324463809175
 21
170.5597275462794
 72
     1
 10
45.26324463809175
 20
170.5597275462794
 11
48.62204269721649
 21
173.918697860292
 72
     1
 10
48.62204269721649
 20
173.918697860292
 11
55.21940490371313
 21
180.5160600667887
 72
     1
 10
55.21940490371313
 20
180.5160600667887
 11
61.81693936509766
 21
173.9183533505162
 72
     1
 10
61.81693936509766
 20
173.9183533505162
 11
65.1757374242224
 21
170.5593830365036
 72
     1
 10
65.1757374242224
 20
170.5593830365036
 11
68.53470773823506
 21
173.9183533505162
 72
     1
 10
68.53470773823506
 20
173.9183533505162
 11
75.13189768984378
 21
180.5157155570129
 72
     1
 10
75.13189768984378
 20
180.5157155570129
 11
81.72943215122832
 21
173.9183533505162
 72
     1
 10
81.72943215122832
 20
173.9183533505162
 11
85.08840246524096
 21
170.5593830365036
 72
     1
 10
85.08840246524096
 20
170.5593830365036
 11
88.44737277925361
 21
173.9183533505162
 72
     1
 10
88.44737277925361
 20
173.9183533505162
 11
95.04439047597445
 21
180.5153710472371
 72
     1
 10
95.04439047597445
 20
180.5153710472371
 11
101.6420971922469
 21
173.9180088407404
 72
     1
 10
101.6420971922469
 20
173.9180088407404
 11
105.0010675062595
 21
170.5590385267278
 72
     1
 10
105.0010675062595
 20
170.5590385267278
 11
108.3596933104964
 21
173.9180088407404
 72
     1
 10
108.3596933104964
 20
173.9180088407404
 11
114.9574000267688
 21
180.5153710472371
 72
     1
 10
114.9574000267688
 20
180.5153710472371
 11
121.5547622332654
 21
173.9180088407404
 72
     1
 10
121.5547622332654
 20
173.9180088407404
 11
124.9137325472781
 21
170.5590385267278
 72
     1
 10
124.9137325472781
 20
170.5590385267278
 11
128.2727028612907
 21
173.9180088407404
 72
     1
 10
128.2727028612907
 20
173.9180088407404
 11
134.8700650677874
 21
180.5153710472371
 72
     1
 10
134.8700650677874
 20
180.5153710472371
 11
141.4677717840598
 21
173.9180088407404
 72
     1
 10
141.4677717840598
 20
173.9180088407404
 11
144.8263975882967
 21
170.5590385267278
 72
     1
 10
144.8263975882967
 20
170.5590385267278
 11
148.1853679023093
 21
173.9180088407404
 72
     1
 10
148.1853679023093
 20
173.9180088407404
 11
154.7830746185817
 21
180.5153710472371
 72
     1
 10
154.7830746185817
 20
180.5153710472371
 11
161.3804368250784
 21
173.9180088407404
 72
     1
 10
161.3804368250784
 20
173.9180088407404
 11
164.739407139091
 21
170.5590385267278
 72
     1
 10
164.739407139091
 20
170.5590385267278
 11
168.0983774531036
 21
173.9180088407404
 72
     1
 10
168.0983774531036
 20
173.9180088407404
 11
174.6957396596003
 21
180.5153710472371
 72
     1
 10
174.6957396596003
 20
180.5153710472371
 11
181.2931018660969
 21
173.9180088407404
 72
     1
 10
181.2931018660969
 20
173.9180088407404
 11
184.6520721801096
 21
170.5590385267278
 72
     1
 10
184.6520721801096
 20
170.5590385267278
 11
188.0110424941222
 21
173.9180088407404
 72
     1
 10
188.0110424941222
 20
173.9180088407404
 11
194.6084047006188
 21
180.5153710472371
 72
     1
 10
194.6084047006188
 20
180.5153710472371
 11
200.0010162211563
 21
175.1227595266996
 72
     1
 10
200.0010162211563
 20
175.1227595266996
 11
200.0010162211563
 21
181.840527899837
 72
     1
 10
200.0010162211563
 20
181.840527899837
 11
194.6084047006188
 21
187.2333116752623
 72
     1
 10
194.6084047006188
 20
187.2333116752623
 11
184.6520721801096
 21
177.2769791547531
 97
        0
 92
        1
 93
       60
 72
     1
 10
15.39441933145181
 20
167.0806955754018
 11
21.99195379283634
 21
160.4833333689051
 72
     1
 10
21.99195379283634
 20
160.4833333689051
 11
25.35075185196109
 21
157.1243630548925
 72
     1
 10
25.35075185196109
 20
157.1243630548925
 11
28.70954991108583
 21
160.4833333689051
 72
     1
 10
28.70954991108583
 20
160.4833333689051
 11
35.30691211758246
 21
167.080351065626
 72
     1
 10
35.30691211758246
 20
167.080351065626
 11
41.904446578967
 21
160.4829888591293
 72
     1
 10
41.904446578967
 20
160.4829888591293
 11
45.26324463809175
 21
157.1240185451167
 72
     1
 10
45.26324463809175
 20
157.1240185451167
 11
48.62221495210439
 21
160.4829888591293
 72
     1
 10
48.62221495210439
 20
160.4829888591293
 11
55.21957715860103
 21
167.080351065626
 72
     1
 10
55.21957715860103
 20
167.080351065626
 11
61.81693936509766
 21
160.4829888591293
 72
     1
 10
61.81693936509766
 20
160.4829888591293
 11
65.1759096791103
 21
157.1240185451167
 72
     1
 10
65.1759096791103
 20
157.1240185451167
 11
68.53470773823506
 21
160.4829888591293
 72
     1
 10
68.53470773823506
 20
160.4829888591293
 11
75.13206994473168
 21
167.0800065558502
 72
     1
 10
75.13206994473168
 20
167.0800065558502
 11
81.72943215122832
 21
160.4826443493535
 72
     1
 10
81.72943215122832
 20
160.4826443493535
 11
85.08840246524096
 21
157.1236740353409
 72
     1
 10
85.08840246524096
 20
157.1236740353409
 11
88.44737277925361
 21
160.4826443493535
 72
     1
 10
88.44737277925361
 20
160.4826443493535
 11
95.04473498575025
 21
167.0800065558502
 72
     1
 10
95.04473498575025
 20
167.0800065558502
 11
101.6420971922469
 21
160.4826443493535
 72
     1
 10
101.6420971922469
 20
160.4826443493535
 11
105.0010675062595
 21
157.1236740353409
 72
     1
 10
105.0010675062595
 20
157.1236740353409
 11
108.3600378202722
 21
160.4826443493535
 72
     1
 10
108.3600378202722
 20
160.4826443493535
 11
114.9574000267688
 21
167.0800065558502
 72
     1
 10
114.9574000267688
 20
167.0800065558502
 11
121.5547622332654
 21
160.4826443493535
 72
     1
 10
121.5547622332654
 20
160.4826443493535
 11
124.9137325472781
 21
157.1236740353409
 72
     1
 10
124.9137325472781
 20
157.1236740353409
 11
128.2727028612907
 21
160.4826443493535
 72
     1
 10
128.2727028612907
 20
160.4826443493535
 11
134.8700650677874
 21
167.0800065558502
 72
     1
 10
134.8700650677874
 20
167.0800065558502
 11
141.4677717840598
 21
160.4826443493535
 72
     1
 10
141.4677717840598
 20
160.4826443493535
 11
144.8263975882967
 21
157.1236740353409
 72
     1
 10
144.8263975882967
 20
157.1236740353409
 11
148.1853679023093
 21
160.4826443493535
 72
     1
 10
148.1853679023093
 20
160.4826443493535
 11
154.7830746185817
 21
167.0800065558502
 72
     1
 10
154.7830746185817
 20
167.0800065558502
 11
161.3804368250784
 21
160.4826443493535
 72
     1
 10
161.3804368250784
 20
160.4826443493535
 11
164.739407139091
 21
157.1236740353409
 72
     1
 10
164.739407139091
 20
157.1236740353409
 11
168.0983774531036
 21
160.4826443493535
 72
     1
 10
168.0983774531036
 20
160.4826443493535
 11
174.6957396596003
 21
167.0800065558502
 72
     1
 10
174.6957396596003
 20
167.0800065558502
 11
181.2931018660969
 21
160.4826443493535
 72
     1
 10
181.2931018660969
 20
160.4826443493535
 11
184.6520721801096
 21
157.1236740353409
 72
     1
 10
184.6520721801096
 20
157.1236740353409
 11
188.0110424941222
 21
160.4826443493535
 72
     1
 10
188.0110424941222
 20
160.4826443493535
 11
194.6084047006188
 21
167.0800065558502
 72
     1
 10
194.6084047006188
 20
167.0800065558502
 11
200.0010162211563
 21
161.6873950353127
 72
     1
 10
200.0010162211563
 20
161.6873950353127
 11
200.0010162211563
 21
168.4049911535622
 72
     1
 10
200.0010162211563
 20
168.4049911535622
 11
194.6084047006188
 21
173.7979471838755
 72
     1
 10
194.6084047006188
 20
173.7979471838755
 11
184.6520721801096
 21
163.8412701535904
 72
     1
 10
184.6520721801096
 20
163.8412701535904
 11
174.6957396596003
 21
173.7979471838755
 72
     1
 10
174.6957396596003
 20
173.7979471838755
 11
164.739407139091
 21
163.8412701535904
 72
     1
 10
164.739407139091
 20
163.8412701535904
 11
154.7830746185817
 21
173.7979471838755
 72
     1
 10
154.7830746185817
 20
173.7979471838755
 11
144.8263975882967
 21
163.8412701535904
 72
     1
 10
144.8263975882967
 20
163.8412701535904
 11
134.8700650677874
 21
173.7979471838755
 72
     1
 10
134.8700650677874
 20
173.7979471838755
 11
124.9137325472781
 21
163.8412701535904
 72
     1
 10
124.9137325472781
 20
163.8412701535904
 11
114.9574000267688
 21
173.7979471838755
 72
     1
 10
114.9574000267688
 20
173.7979471838755
 11
105.0010675062595
 21
163.8416146633662
 72
     1
 10
105.0010675062595
 20
163.8416146633662
 11
95.04473498575025
 21
173.7979471838755
 72
     1
 10
95.04473498575025
 20
173.7979471838755
 11
85.08840246524096
 21
163.8416146633662
 72
     1
 10
85.08840246524096
 20
163.8416146633662
 11
75.13206994473168
 21
173.7979471838755
 72
     1
 10
75.13206994473168
 20
173.7979471838755
 11
65.1757374242224
 21
163.841959173142
 72
     1
 10
65.1757374242224
 20
163.841959173142
 11
55.21940490371313
 21
173.7982916936513
 72
     1
 10
55.21940490371313
 20
173.7982916936513
 11
45.26324463809175
 21
163.841959173142
 72
     1
 10
45.26324463809175
 20
163.841959173142
 11
35.30691211758246
 21
173.7982916936513
 72
     1
 10
35.30691211758246
 20
173.7982916936513
 11
25.35057959707319
 21
163.8423036829178
 72
     1
 10
25.35057959707319
 20
163.8423036829178
 11
15.39424707656391
 21
173.7986362034271
 72
     1
 10
15.39424707656391
 20
173.7986362034271
 11
10.00077428158698
 21
168.4049911535622
 72
     1
 10
10.00077428158698
 20
168.4049911535622
 11
10.00077428158698
 21
161.6870505255369
 72
     1
 10
10.00077428158698
 20
161.6870505255369
 11
15.39441933145181
 21
167.0806955754018
 97
        0
 92
        1
 93
       60
 72
     1
 10
15.3949360961155
 20
113.3385485903026
 11
21.99229830261213
 21
106.7408418740302
 72
     1
 10
21.99229830261213
 20
106.7408418740302
 11
25.35126861662478
 21
103.3822160697933
 72
     1
 10
25.35126861662478
 20
103.3822160697933
 11
28.71006667574953
 21
106.7408418740302
 72
     1
 10
28.71006667574953
 20
106.7408418740302
 11
35.30742888224616
 21
113.3385485903026
 72
     1
 10
35.30742888224616
 20
113.3385485903026
 11
41.90479108874279
 21
106.7408418740302
 72
     1
 10
41.90479108874279
 20
106.7408418740302
 11
45.26376140275544
 21
103.3822160697933
 72
     1
 10
45.26376140275544
 20
103.3822160697933
 11
48.62273171676809
 21
106.7408418740302
 72
     1
 10
48.62273171676809
 20
106.7408418740302
 11
55.22009392326472
 21
113.3383763354147
 72
     1
 10
55.22009392326472
 20
113.3383763354147
 11
61.81745612976135
 21
106.7408418740302
 72
     1
 10
61.81745612976135
 20
106.7408418740302
 11
65.176426443774
 21
103.3815270502417
 72
     1
 10
65.176426443774
 20
103.3815270502417
 11
68.53522450289874
 21
106.7408418740302
 72
     1
 10
68.53522450289874
 20
106.7408418740302
 11
75.13258670939538
 21
113.3383763354147
 72
     1
 10
75.13258670939538
 20
113.3383763354147
 11
81.72994891589201
 21
106.7403251093665
 72
     1
 10
81.72994891589201
 20
106.7403251093665
 11
85.08891922990466
 21
103.3815270502417
 72
     1
 10
85.08891922990466
 20
103.3815270502417
 11
88.44771728902941
 21
106.7403251093665
 72
     1
 10
88.44771728902941
 20
106.7403251093665
 11
95.04507949552604
 21
113.3380318256389
 72
     1
 10
95.04507949552604
 20
113.3380318256389
 11
101.6424417020227
 21
106.7403251093665
 72
     1
 10
101.6424417020227
 20
106.7403251093665
 11
105.0017565258111
 21
103.3815270502417
 72
     1
 10
105.0017565258111
 20
103.3815270502417
 11
108.360382330048
 21
106.7403251093665
 72
     1
 10
108.360382330048
 20
106.7403251093665
 11
114.9577445365446
 21
113.3380318256389
 72
     1
 10
114.9577445365446
 20
113.3380318256389
 11
121.5551067430412
 21
106.7403251093665
 72
     1
 10
121.5551067430412
 20
106.7403251093665
 11
124.9144215668297
 21
103.3815270502417
 72
     1
 10
124.9144215668297
 20
103.3815270502417
 11
128.2730473710665
 21
106.7403251093665
 72
     1
 10
128.2730473710665
 20
106.7403251093665
 11
134.8704095775632
 21
113.3376873158631
 72
     1
 10
134.8704095775632
 20
113.3376873158631
 11
141.4677717840598
 21
106.7403251093665
 72
     1
 10
141.4677717840598
 20
106.7403251093665
 11
144.8267420980724
 21
103.3808380306901
 72
     1
 10
144.8267420980724
 20
103.3808380306901
 11
148.1857124120851
 21
106.7403251093665
 72
     1
 10
148.1857124120851
 20
106.7403251093665
 11
154.7830746185817
 21
113.3376873158631
 72
     1
 10
154.7830746185817
 20
113.3376873158631
 11
161.3804368250784
 21
106.7403251093665
 72
     1
 10
161.3804368250784
 20
106.7403251093665
 11
164.739407139091
 21
103.3808380306901
 72
     1
 10
164.739407139091
 20
103.3808380306901
 11
168.0983774531036
 21
106.7396360898149
 72
     1
 10
168.0983774531036
 20
106.7396360898149
 11
174.6957396596003
 21
113.3376873158631
 72
     1
 10
174.6957396596003
 20
113.3376873158631
 11
181.2931018660969
 21
106.7396360898149
 72
     1
 10
181.2931018660969
 20
106.7396360898149
 11
184.6520721801096
 21
103.3808380306901
 72
     1
 10
184.6520721801096
 20
103.3808380306901
 11
188.0110424941222
 21
106.7396360898149
 72
     1
 10
188.0110424941222
 20
106.7396360898149
 11
194.6084047006188
 21
113.3376873158631
 72
     1
 10
194.6084047006188
 20
113.3376873158631
 11
200.0010162211563
 21
107.944559030662
 72
     1
 10
200.0010162211563
 20
107.944559030662
 11
200.0010162211563
 21
114.6624996586873
 72
     1
 10
200.0010162211563
 20
114.6624996586873
 11
194.6084047006188
 21
120.0551111792247
 72
     1
 10
194.6084047006188
 20
120.0551111792247
 11
184.6520721801096
 21
110.0987786587154
 72
     1
 10
184.6520721801096
 20
110.0987786587154
 11
174.6957396596003
 21
120.0551111792247
 72
     1
 10
174.6957396596003
 20
120.0551111792247
 11
164.739407139091
 21
110.0987786587154
 72
     1
 10
164.739407139091
 20
110.0987786587154
 11
154.7830746185817
 21
120.0551111792247
 72
     1
 10
154.7830746185817
 20
120.0551111792247
 11
144.8267420980724
 21
110.0987786587154
 72
     1
 10
144.8267420980724
 20
110.0987786587154
 11
134.8704095775632
 21
120.0554556890005
 72
     1
 10
134.8704095775632
 20
120.0554556890005
 11
124.9140770570539
 21
110.0987786587154
 72
     1
 10
124.9140770570539
 20
110.0987786587154
 11
114.9577445365446
 21
120.0558001987763
 72
     1
 10
114.9577445365446
 20
120.0558001987763
 11
105.0017565258111
 21
110.099467678267
 72
     1
 10
105.0017565258111
 20
110.099467678267
 11
95.04507949552604
 21
120.0558001987763
 72
     1
 10
95.04507949552604
 20
120.0558001987763
 11
85.08891922990466
 21
110.099467678267
 72
     1
 10
85.08891922990466
 20
110.099467678267
 11
75.13258670939538
 21
120.0561447085521
 72
     1
 10
75.13258670939538
 20
120.0561447085521
 11
65.1762541888861
 21
110.099467678267
 72
     1
 10
65.1762541888861
 20
110.099467678267
 11
55.21992166837682
 21
120.0561447085521
 72
     1
 10
55.21992166837682
 20
120.0561447085521
 11
45.26376140275544
 21
110.099467678267
 72
     1
 10
45.26376140275544
 20
110.099467678267
 11
35.30742888224616
 21
120.0564892183279
 72
     1
 10
35.30742888224616
 20
120.0564892183279
 11
25.35109636173688
 21
110.1001566978186
 72
     1
 10
25.35109636173688
 20
110.1001566978186
 11
15.3947638412276
 21
120.0564892183279
 72
     1
 10
15.3947638412276
 20
120.0564892183279
 11
10.00077428158698
 21
114.6624996586873
 72
     1
 10
10.00077428158698
 20
114.6624996586873
 11
10.00077428158698
 21
107.9449035404378
 72
     1
 10
10.00077428158698
 20
107.9449035404378
 11
15.3949360961155
 21
113.3385485903026
 97
        0
 92
        1
 93
       69
 72
     1
 10
194.6090937201704
 20
26.00635395530119
 11
184.6527611996611
 21
16.05036594456771
 72
     1
 10
184.6527611996611
 20
16.05036594456771
 11
174.6964286791519
 21
26.00635395530119
 72
     1
 10
174.6964286791519
 20
26.00635395530119
 11
164.7400961586426
 21
16.05036594456771
 72
     1
 10
164.7400961586426
 20
16.05036594456771
 11
154.7837636381333
 21
26.00635395530119
 72
     1
 10
154.7837636381333
 20
26.00635395530119
 11
144.8277756273998
 21
16.05036594456771
 72
     1
 10
144.8277756273998
 20
16.05036594456771
 11
134.8710985971148
 21
26.00704297485279
 72
     1
 10
134.8710985971148
 20
26.00704297485279
 11
124.9151105863813
 21
16.05036594456771
 72
     1
 10
124.9151105863813
 20
16.05036594456771
 11
114.9584335560962
 21
26.00704297485279
 72
     1
 10
114.9584335560962
 20
26.00704297485279
 11
105.0024455453627
 21
16.0510549641193
 72
     1
 10
105.0024455453627
 20
16.0510549641193
 11
95.04611302485343
 21
26.00704297485279
 72
     1
 10
95.04611302485343
 20
26.00704297485279
 11
85.08978050434415
 21
16.0510549641193
 72
     1
 10
85.08978050434415
 20
16.0510549641193
 11
75.13344798383487
 21
26.00704297485279
 72
     1
 10
75.13344798383487
 20
26.00704297485279
 11
65.17711546332559
 21
16.0510549641193
 72
     1
 10
65.17711546332559
 20
16.0510549641193
 11
55.22078294281631
 21
26.00773199440438
 72
     1
 10
55.22078294281631
 20
26.00773199440438
 11
45.26462267719493
 21
16.0510549641193
 72
     1
 10
45.26462267719493
 20
16.0510549641193
 11
35.30829015668565
 21
26.00773199440438
 72
     1
 10
35.30829015668565
 20
26.00773199440438
 11
25.35195763617637
 21
16.0517439836709
 72
     1
 10
25.35195763617637
 20
16.0517439836709
 11
15.39562511566709
 21
26.00773199440438
 72
     1
 10
15.39562511566709
 20
26.00773199440438
 11
10.00077428158698
 21
20.61305341521217
 72
     1
 10
10.00077428158698
 20
20.61305341521217
 11
10.00077428158698
 21
13.89476827741108
 72
     1
 10
10.00077428158698
 20
13.89476827741108
 11
15.39579737055499
 21
19.28979136637908
 72
     1
 10
15.39579737055499
 20
19.28979136637908
 11
21.99315957705162
 21
12.69242915988245
 72
     1
 10
21.99315957705162
 20
12.69242915988245
 11
24.68550347489868
 21
10.00042977181119
 72
     1
 10
24.68550347489868
 20
10.00042977181119
 11
26.01875630722986
 21
10.00042977181119
 72
     1
 10
26.01875630722986
 20
10.00042977181119
 11
28.71092795018902
 21
12.69242915988245
 72
     1
 10
28.71092795018902
 20
12.69242915988245
 11
35.30829015668565
 21
19.28979136637908
 72
     1
 10
35.30829015668565
 20
19.28979136637908
 11
41.90565236318228
 21
12.69242915988245
 72
     1
 10
41.90565236318228
 20
12.69242915988245
 11
44.59730724147775
 21
10.00042977181119
 72
     1
 10
44.59730724147775
 20
10.00042977181119
 11
45.93193811291211
 21
10.00042977181119
 72
     1
 10
45.93193811291211
 20
10.00042977181119
 11
48.62359299120757
 21
12.69242915988245
 72
     1
 10
48.62359299120757
 20
12.69242915988245
 11
55.22095519770421
 21
19.28979136637908
 72
     1
 10
55.22095519770421
 20
19.28979136637908
 11
61.81831740420084
 21
12.69242915988245
 72
     1
 10
61.81831740420084
 20
12.69242915988245
 11
64.5099722824963
 21
10.00042977181119
 72
     1
 10
64.5099722824963
 20
10.00042977181119
 11
65.84443089904278
 21
10.00042977181119
 72
     1
 10
65.84443089904278
 20
10.00042977181119
 11
68.53591352245034
 21
12.69242915988245
 72
     1
 10
68.53591352245034
 20
12.69242915988245
 11
75.13344798383487
 21
19.28979136637908
 72
     1
 10
75.13344798383487
 20
19.28979136637908
 11
81.73081019033151
 21
12.69174014033086
 72
     1
 10
81.73081019033151
 20
12.69174014033086
 11
84.42246506862698
 21
10.00042977181119
 72
     1
 10
84.42246506862698
 20
10.00042977181119
 11
85.75709594006133
 21
10.00042977181119
 72
     1
 10
85.75709594006133
 20
10.00042977181119
 11
88.4485785634689
 21
12.69174014033086
 72
     1
 10
88.4485785634689
 20
12.69174014033086
 11
95.04611302485343
 21
19.28910234682749
 72
     1
 10
95.04611302485343
 20
19.28910234682749
 11
101.6434752313501
 21
12.69174014033086
 72
     1
 10
101.6434752313501
 20
12.69174014033086
 11
104.3349578547576
 21
10.00042977181119
 72
     1
 10
104.3349578547576
 20
10.00042977181119
 11
105.6697609810799
 21
10.00042977181119
 72
     1
 10
105.6697609810799
 20
10.00042977181119
 11
108.3614158593754
 21
12.69174014033086
 72
     1
 10
108.3614158593754
 20
12.69174014033086
 11
114.958778065872
 21
19.28910234682749
 72
     1
 10
114.958778065872
 20
19.28910234682749
 11
121.5561402723686
 21
12.69174014033086
 72
     1
 10
121.5561402723686
 20
12.69174014033086
 11
124.2477951506641
 21
10.00042977181119
 72
     1
 10
124.2477951506641
 20
10.00042977181119
 11
125.5824260220984
 21
10.00042977181119
 72
     1
 10
125.5824260220984
 20
10.00042977181119
 11
128.2737363906181
 21
12.69174014033086
 72
     1
 10
128.2737363906181
 20
12.69174014033086
 11
134.8710985971148
 21
19.28910234682749
 72
     1
 10
134.8710985971148
 20
19.28910234682749
 11
141.4684608036114
 21
12.69174014033086
 72
     1
 10
141.4684608036114
 20
12.69174014033086
 11
144.1597711721311
 21
10.00042977181119
 72
     1
 10
144.1597711721311
 20
10.00042977181119
 11
145.4957800826686
 21
10.00042977181119
 72
     1
 10
145.4957800826686
 20
10.00042977181119
 11
148.1864014316367
 21
12.69174014033086
 72
     1
 10
148.1864014316367
 20
12.69174014033086
 11
154.7837636381333
 21
19.28910234682749
 72
     1
 10
154.7837636381333
 20
19.28910234682749
 11
161.3814703544057
 21
12.69174014033086
 72
     1
 10
161.3814703544057
 20
12.69174014033086
 11
164.0720917033738
 21
10.00042977181119
 72
     1
 10
164.0720917033738
 20
10.00042977181119
 11
165.4081006139114
 21
10.00042977181119
 72
     1
 10
165.4081006139114
 20
10.00042977181119
 11
168.0990664726552
 21
12.69105112077927
 72
     1
 10
168.0990664726552
 20
12.69105112077927
 11
174.6964286791519
 21
19.2884133272759
 72
     1
 10
174.6964286791519
 20
19.2884133272759
 11
181.2937908856485
 21
12.69105112077927
 72
     1
 10
181.2937908856485
 20
12.69105112077927
 11
183.9847567443924
 21
10.00042977181119
 72
     1
 10
183.9847567443924
 20
10.00042977181119
 11
185.3207656549299
 21
10.00042977181119
 72
     1
 10
185.3207656549299
 20
10.00042977181119
 11
188.011387003898
 21
12.69105112077927
 72
     1
 10
188.011387003898
 20
12.69105112077927
 11
194.6090937201704
 21
19.2884133272759
 72
     1
 10
194.6090937201704
 20
19.2884133272759
 11
200.0010162211563
 21
13.89649082629006
 72
     1
 10
200.0010162211563
 20
13.89649082629006
 11
200.0010162211563
 21
20.61408694453956
 72
     1
 10
200.0010162211563
 20
20.61408694453956
 11
194.6090937201704
 21
26.00635395530119
 97
        0
 92
        1
 93
       60
 72
     1
 10
15.3947638412276
 20
126.7742575914653
 11
21.99212604772423
 21
120.1768953849687
 72
     1
 10
21.99212604772423
 20
120.1768953849687
 11
25.35109636173688
 21
116.817925070956
 72
     1
 10
25.35109636173688
 20
116.817925070956
 11
28.70989442086163
 21
120.1765508751929
 72
     1
 10
28.70989442086163
 20
120.1765508751929
 11
35.30725662735826
 21
126.7739130816895
 72
     1
 10
35.30725662735826
 20
126.7739130816895
 11
41.90479108874279
 21
120.1765508751929
 72
     1
 10
41.90479108874279
 20
120.1765508751929
 11
45.26358914786754
 21
116.8177528160681
 72
     1
 10
45.26358914786754
 20
116.8177528160681
 11
48.62255946188019
 21
120.1765508751929
 72
     1
 10
48.62255946188019
 20
120.1765508751929
 11
55.21992166837682
 21
126.7739130816895
 72
     1
 10
55.21992166837682
 20
126.7739130816895
 11
61.81728387487345
 21
120.1765508751929
 72
     1
 10
61.81728387487345
 20
120.1765508751929
 11
65.1762541888861
 21
116.8177528160681
 72
     1
 10
65.1762541888861
 20
116.8177528160681
 11
68.53505224801086
 21
120.1762063654171
 72
     1
 10
68.53505224801086
 20
120.1762063654171
 11
75.13241445450748
 21
126.7737408268016
 72
     1
 10
75.13241445450748
 20
126.7737408268016
 11
81.72994891589201
 21
120.1762063654171
 72
     1
 10
81.72994891589201
 20
120.1762063654171
 11
85.08874697501676
 21
116.8174083062923
 72
     1
 10
85.08874697501676
 20
116.8174083062923
 11
88.44771728902941
 21
120.1762063654171
 72
     1
 10
88.44771728902941
 20
120.1762063654171
 11
95.04507949552604
 21
126.7737408268016
 72
     1
 10
95.04507949552604
 20
126.7737408268016
 11
101.6424417020227
 21
120.1762063654171
 72
     1
 10
101.6424417020227
 20
120.1762063654171
 11
105.0014120160353
 21
116.8174083062923
 72
     1
 10
105.0014120160353
 20
116.8174083062923
 11
108.360382330048
 21
120.1762063654171
 72
     1
 10
108.360382330048
 20
120.1762063654171
 11
114.9577445365446
 21
126.7733963170258
 72
     1
 10
114.9577445365446
 20
126.7733963170258
 11
121.5551067430412
 21
120.1758618556413
 72
     1
 10
121.5551067430412
 20
120.1758618556413
 11
124.9140770570539
 21
116.8170637965165
 72
     1
 10
124.9140770570539
 20
116.8170637965165
 11
128.2730473710665
 21
120.1758618556413
 72
     1
 10
128.2730473710665
 20
120.1758618556413
 11
134.8704095775632
 21
126.7733963170258
 72
     1
 10
134.8704095775632
 20
126.7733963170258
 11
141.4677717840598
 21
120.1756896007534
 72
     1
 10
141.4677717840598
 20
120.1756896007534
 11
144.8263975882967
 21
116.8170637965165
 72
     1
 10
144.8263975882967
 20
116.8170637965165
 11
148.1857124120851
 21
120.1756896007534
 72
     1
 10
148.1857124120851
 20
120.1756896007534
 11
154.7830746185817
 21
126.77305180725
 72
     1
 10
154.7830746185817
 20
126.77305180725
 11
161.3804368250784
 21
120.1756896007534
 72
     1
 10
161.3804368250784
 20
120.1756896007534
 11
164.739407139091
 21
116.8167192867407
 72
     1
 10
164.739407139091
 20
116.8167192867407
 11
168.0983774531036
 21
120.1756896007534
 72
     1
 10
168.0983774531036
 20
120.1756896007534
 11
174.6957396596003
 21
126.77305180725
 72
     1
 10
174.6957396596003
 20
126.77305180725
 11
181.2931018660969
 21
120.1756896007534
 72
     1
 10
181.2931018660969
 20
120.1756896007534
 11
184.6520721801096
 21
116.8167192867407
 72
     1
 10
184.6520721801096
 20
116.8167192867407
 11
188.0110424941222
 21
120.1756896007534
 72
     1
 10
188.0110424941222
 20
120.1756896007534
 11
194.6084047006188
 21
126.77305180725
 72
     1
 10
194.6084047006188
 20
126.77305180725
 11
200.0010162211563
 21
121.3802680318247
 72
     1
 10
200.0010162211563
 20
121.3802680318247
 11
200.0010162211563
 21
128.09820865985
 72
     1
 10
200.0010162211563
 20
128.09820865985
 11
194.6084047006188
 21
133.4908201803874
 72
     1
 10
194.6084047006188
 20
133.4908201803874
 11
184.6520721801096
 21
123.5344876598781
 72
     1
 10
184.6520721801096
 20
123.5344876598781
 11
174.6957396596003
 21
133.4908201803874
 72
     1
 10
174.6957396596003
 20
133.4908201803874
 11
164.739407139091
 21
123.5344876598781
 72
     1
 10
164.739407139091
 20
123.5344876598781
 11
154.7830746185817
 21
133.4908201803874
 72
     1
 10
154.7830746185817
 20
133.4908201803874
 11
144.8263975882967
 21
123.5344876598781
 72
     1
 10
144.8263975882967
 20
123.5344876598781
 11
134.8704095775632
 21
133.4911646901632
 72
     1
 10
134.8704095775632
 20
133.4911646901632
 11
124.9140770570539
 21
123.5348321696539
 72
     1
 10
124.9140770570539
 20
123.5348321696539
 11
114.9577445365446
 21
133.4911646901632
 72
     1
 10
114.9577445365446
 20
133.4911646901632
 11
105.0014120160353
 21
123.5348321696539
 72
     1
 10
105.0014120160353
 20
123.5348321696539
 11
95.04507949552604
 21
133.491509199939
 72
     1
 10
95.04507949552604
 20
133.491509199939
 11
85.08874697501676
 21
123.5351766794297
 72
     1
 10
85.08874697501676
 20
123.5351766794297
 11
75.13241445450748
 21
133.491509199939
 72
     1
 10
75.13241445450748
 20
133.491509199939
 11
65.1762541888861
 21
123.5351766794297
 72
     1
 10
65.1762541888861
 20
123.5351766794297
 11
55.21974941348893
 21
133.491509199939
 72
     1
 10
55.21974941348893
 20
133.491509199939
 11
45.26358914786754
 21
123.5355211892055
 72
     1
 10
45.26358914786754
 20
123.5355211892055
 11
35.30725662735826
 21
133.4918537097148
 72
     1
 10
35.30725662735826
 20
133.4918537097148
 11
25.35109636173688
 21
123.5355211892055
 72
     1
 10
25.35109636173688
 20
123.5355211892055
 11
15.3945915863397
 21
133.4918537097148
 72
     1
 10
15.3945915863397
 20
133.4918537097148
 11
10.00077428158698
 21
128.09820865985
 72
     1
 10
10.00077428158698
 20
128.09820865985
 11
10.00077428158698
 21
121.3802680318247
 72
     1
 10
10.00077428158698
 20
121.3802680318247
 11
15.3947638412276
 21
126.7742575914653
 97
        0
 92
        1
 93
       60
 72
     1
 10
15.3945915863397
 20
153.6453310840149
 11
21.99212604772423
 21
147.0479688775182
 72
     1
 10
21.99212604772423
 20
147.0479688775182
 11
25.35092410684898
 21
143.6889985635056
 72
     1
 10
25.35092410684898
 20
143.6889985635056
 11
28.70972216597373
 21
147.0476243677424
 72
     1
 10
28.70972216597373
 20
147.0476243677424
 11
35.30708437247036
 21
153.6449865742391
 72
     1
 10
35.30708437247036
 20
153.6449865742391
 11
41.904446578967
 21
147.0476243677424
 72
     1
 10
41.904446578967
 20
147.0476243677424
 11
45.26341689297964
 21
143.6886540537298
 72
     1
 10
45.26341689297964
 20
143.6886540537298
 11
48.62238720699229
 21
147.0476243677424
 72
     1
 10
48.62238720699229
 20
147.0476243677424
 11
55.21974941348893
 21
153.6449865742391
 72
     1
 10
55.21974941348893
 20
153.6449865742391
 11
61.81711161998556
 21
147.0472798579667
 72
     1
 10
61.81711161998556
 20
147.0472798579667
 11
65.1760819339982
 21
143.6886540537298
 72
     1
 10
65.1760819339982
 20
143.6886540537298
 11
68.53487999312296
 21
147.0472798579667
 72
     1
 10
68.53487999312296
 20
147.0472798579667
 11
75.13224219961958
 21
153.6446420644633
 72
     1
 10
75.13224219961958
 20
153.6446420644633
 11
81.72960440611622
 21
147.0472798579667
 72
     1
 10
81.72960440611622
 20
147.0472798579667
 11
85.08857472012886
 21
143.688309543954
 72
     1
 10
85.08857472012886
 20
143.688309543954
 11
88.44771728902941
 21
147.0472798579667
 72
     1
 10
88.44771728902941
 20
147.0472798579667
 11
95.04507949552604
 21
153.6446420644633
 72
     1
 10
95.04507949552604
 20
153.6446420644633
 11
101.6424417020227
 21
147.0469353481909
 72
     1
 10
101.6424417020227
 20
147.0469353481909
 11
105.0010675062595
 21
143.6881372890661
 72
     1
 10
105.0010675062595
 20
143.6881372890661
 11
108.360382330048
 21
147.0469353481909
 72
     1
 10
108.360382330048
 20
147.0469353481909
 11
114.9577445365446
 21
153.6442975546875
 72
     1
 10
114.9577445365446
 20
153.6442975546875
 11
121.5551067430412
 21
147.0469353481909
 72
     1
 10
121.5551067430412
 20
147.0469353481909
 11
124.9137325472781
 21
143.6881372890661
 72
     1
 10
124.9137325472781
 20
143.6881372890661
 11
128.2727028612907
 21
147.0469353481909
 72
     1
 10
128.2727028612907
 20
147.0469353481909
 11
134.8700650677874
 21
153.6442975546875
 72
     1
 10
134.8700650677874
 20
153.6442975546875
 11
141.4677717840598
 21
147.0469353481909
 72
     1
 10
141.4677717840598
 20
147.0469353481909
 11
144.8263975882967
 21
143.6881372890661
 72
     1
 10
144.8263975882967
 20
143.6881372890661
 11
148.1853679023093
 21
147.0469353481909
 72
     1
 10
148.1853679023093
 20
147.0469353481909
 11
154.7830746185817
 21
153.6442975546875
 72
     1
 10
154.7830746185817
 20
153.6442975546875
 11
161.3804368250784
 21
147.0469353481909
 72
     1
 10
161.3804368250784
 20
147.0469353481909
 11
164.739407139091
 21
143.6881372890661
 72
     1
 10
164.739407139091
 20
143.6881372890661
 11
168.0983774531036
 21
147.0469353481909
 72
     1
 10
168.0983774531036
 20
147.0469353481909
 11
174.6957396596003
 21
153.6442975546875
 72
     1
 10
174.6957396596003
 20
153.6442975546875
 11
181.2931018660969
 21
147.0469353481909
 72
     1
 10
181.2931018660969
 20
147.0469353481909
 11
184.6520721801096
 21
143.6881372890661
 72
     1
 10
184.6520721801096
 20
143.6881372890661
 11
188.0110424941222
 21
147.0469353481909
 72
     1
 10
188.0110424941222
 20
147.0469353481909
 11
194.6084047006188
 21
153.6442975546875
 72
     1
 10
194.6084047006188
 20
153.6442975546875
 11
200.0010162211563
 21
148.2516860341501
 72
     1
 10
200.0010162211563
 20
148.2516860341501
 11
200.0010162211563
 21
154.9696266621754
 72
     1
 10
200.0010162211563
 20
154.9696266621754
 11
194.6084047006188
 21
160.3622381827128
 72
     1
 10
194.6084047006188
 20
160.3622381827128
 11
184.6520721801096
 21
150.4059056622035
 72
     1
 10
184.6520721801096
 20
150.4059056622035
 11
174.6957396596003
 21
160.3622381827128
 72
     1
 10
174.6957396596003
 20
160.3622381827128
 11
164.739407139091
 21
150.4059056622035
 72
     1
 10
164.739407139091
 20
150.4059056622035
 11
154.7830746185817
 21
160.3622381827128
 72
     1
 10
154.7830746185817
 20
160.3622381827128
 11
144.8263975882967
 21
150.4059056622035
 72
     1
 10
144.8263975882967
 20
150.4059056622035
 11
134.8700650677874
 21
160.3622381827128
 72
     1
 10
134.8700650677874
 20
160.3622381827128
 11
124.9137325472781
 21
150.4059056622035
 72
     1
 10
124.9137325472781
 20
150.4059056622035
 11
114.9574000267688
 21
160.3622381827128
 72
     1
 10
114.9574000267688
 20
160.3622381827128
 11
105.0010675062595
 21
150.4059056622035
 72
     1
 10
105.0010675062595
 20
150.4059056622035
 11
95.04507949552604
 21
160.3625826924886
 72
     1
 10
95.04507949552604
 20
160.3625826924886
 11
85.08857472012886
 21
150.4062501719793
 72
     1
 10
85.08857472012886
 20
150.4062501719793
 11
75.13224219961958
 21
160.3625826924886
 72
     1
 10
75.13224219961958
 20
160.3625826924886
 11
65.1759096791103
 21
150.4062501719793
 72
     1
 10
65.1759096791103
 20
150.4062501719793
 11
55.21957715860103
 21
160.3625826924886
 72
     1
 10
55.21957715860103
 20
160.3625826924886
 11
45.26341689297964
 21
150.4065946817551
 72
     1
 10
45.26341689297964
 20
150.4065946817551
 11
35.30708437247036
 21
160.3629272022644
 72
     1
 10
35.30708437247036
 20
160.3629272022644
 11
25.35075185196109
 21
150.4065946817551
 72
     1
 10
25.35075185196109
 20
150.4065946817551
 11
15.39441933145181
 21
160.3629272022644
 72
     1
 10
15.39441933145181
 20
160.3629272022644
 11
10.00077428158698
 21
154.9692821523996
 72
     1
 10
10.00077428158698
 20
154.9692821523996
 11
10.00077428158698
 21
148.2515137792622
 72
     1
 10
10.00077428158698
 20
148.2515137792622
 11
15.3945915863397
 21
153.6453310840149
 97
        0
 92
        1
 93
       60
 72
     1
 10
15.3945915863397
 20
140.2096220828522
 11
21.99212604772423
 21
133.6122598763556
 72
     1
 10
21.99212604772423
 20
133.6122598763556
 11
25.35109636173688
 21
130.2532895623429
 72
     1
 10
25.35109636173688
 20
130.2532895623429
 11
28.70989442086163
 21
133.6122598763556
 72
     1
 10
28.70989442086163
 20
133.6122598763556
 11
35.30708437247036
 21
140.2096220828522
 72
     1
 10
35.30708437247036
 20
140.2096220828522
 11
41.9046188338549
 21
133.6119153665798
 72
     1
 10
41.9046188338549
 20
133.6119153665798
 11
45.26358914786754
 21
130.2529450525671
 72
     1
 10
45.26358914786754
 20
130.2529450525671
 11
48.62255946188019
 21
133.6119153665798
 72
     1
 10
48.62255946188019
 20
133.6119153665798
 11
55.21974941348893
 21
140.2092775730764
 72
     1
 10
55.21974941348893
 20
140.2092775730764
 11
61.81728387487345
 21
133.6119153665798
 72
     1
 10
61.81728387487345
 20
133.6119153665798
 11
65.1762541888861
 21
130.2529450525671
 72
     1
 10
65.1762541888861
 20
130.2529450525671
 11
68.53505224801086
 21
133.6119153665798
 72
     1
 10
68.53505224801086
 20
133.6119153665798
 11
75.13224219961958
 21
140.2092775730764
 72
     1
 10
75.13224219961958
 20
140.2092775730764
 11
81.72977666100411
 21
133.611570856804
 72
     1
 10
81.72977666100411
 20
133.611570856804
 11
85.08874697501676
 21
130.2527727976792
 72
     1
 10
85.08874697501676
 20
130.2527727976792
 11
88.44771728902941
 21
133.611570856804
 72
     1
 10
88.44771728902941
 20
133.611570856804
 11
95.04507949552604
 21
140.2089330633006
 72
     1
 10
95.04507949552604
 20
140.2089330633006
 11
101.6424417020227
 21
133.611570856804
 72
     1
 10
101.6424417020227
 20
133.611570856804
 11
105.0014120160353
 21
130.2527727976792
 72
     1
 10
105.0014120160353
 20
130.2527727976792
 11
108.360382330048
 21
133.611570856804
 72
     1
 10
108.360382330048
 20
133.611570856804
 11
114.9577445365446
 21
140.2089330633006
 72
     1
 10
114.9577445365446
 20
140.2089330633006
 11
121.5551067430412
 21
133.611570856804
 72
     1
 10
121.5551067430412
 20
133.611570856804
 11
124.9140770570539
 21
130.2527727976792
 72
     1
 10
124.9140770570539
 20
130.2527727976792
 11
128.2730473710665
 21
133.6112263470282
 72
     1
 10
128.2730473710665
 20
133.6112263470282
 11
134.8700650677874
 21
140.2087608084127
 72
     1
 10
134.8700650677874
 20
140.2087608084127
 11
141.4677717840598
 21
133.6112263470282
 72
     1
 10
141.4677717840598
 20
133.6112263470282
 11
144.8263975882967
 21
130.2524282879034
 72
     1
 10
144.8263975882967
 20
130.2524282879034
 11
148.1853679023093
 21
133.6112263470282
 72
     1
 10
148.1853679023093
 20
133.6112263470282
 11
154.7830746185817
 21
140.2087608084127
 72
     1
 10
154.7830746185817
 20
140.2087608084127
 11
161.3804368250784
 21
133.6112263470282
 72
     1
 10
161.3804368250784
 20
133.6112263470282
 11
164.739407139091
 21
130.2524282879034
 72
     1
 10
164.739407139091
 20
130.2524282879034
 11
168.0983774531036
 21
133.6112263470282
 72
     1
 10
168.0983774531036
 20
133.6112263470282
 11
174.6957396596003
 21
140.2087608084127
 72
     1
 10
174.6957396596003
 20
140.2087608084127
 11
181.2931018660969
 21
133.6112263470282
 72
     1
 10
181.2931018660969
 20
133.6112263470282
 11
184.6520721801096
 21
130.2524282879034
 72
     1
 10
184.6520721801096
 20
130.2524282879034
 11
188.0110424941222
 21
133.6112263470282
 72
     1
 10
188.0110424941222
 20
133.6112263470282
 11
194.6084047006188
 21
140.2087608084127
 72
     1
 10
194.6084047006188
 20
140.2087608084127
 11
200.0010162211563
 21
134.8159770329874
 72
     1
 10
200.0010162211563
 20
134.8159770329874
 11
200.0010162211563
 21
141.5339176610127
 72
     1
 10
200.0010162211563
 20
141.5339176610127
 11
194.6084047006188
 21
146.9265291815501
 72
     1
 10
194.6084047006188
 20
146.9265291815501
 11
184.6520721801096
 21
136.9701966610408
 72
     1
 10
184.6520721801096
 20
136.9701966610408
 11
174.6957396596003
 21
146.9265291815501
 72
     1
 10
174.6957396596003
 20
146.9265291815501
 11
164.739407139091
 21
136.9701966610408
 72
     1
 10
164.739407139091
 20
136.9701966610408
 11
154.7830746185817
 21
146.9265291815501
 72
     1
 10
154.7830746185817
 20
146.9265291815501
 11
144.8263975882967
 21
136.9701966610408
 72
     1
 10
144.8263975882967
 20
136.9701966610408
 11
134.8700650677874
 21
146.9265291815501
 72
     1
 10
134.8700650677874
 20
146.9265291815501
 11
124.9137325472781
 21
136.9701966610408
 72
     1
 10
124.9137325472781
 20
136.9701966610408
 11
114.9577445365446
 21
146.9265291815501
 72
     1
 10
114.9577445365446
 20
146.9265291815501
 11
105.0014120160353
 21
136.9705411708166
 72
     1
 10
105.0014120160353
 20
136.9705411708166
 11
95.04507949552604
 21
146.9268736913259
 72
     1
 10
95.04507949552604
 20
146.9268736913259
 11
85.08874697501676
 21
136.9705411708166
 72
     1
 10
85.08874697501676
 20
136.9705411708166
 11
75.13224219961958
 21
146.9268736913259
 72
     1
 10
75.13224219961958
 20
146.9268736913259
 11
65.1760819339982
 21
136.9708856805924
 72
     1
 10
65.1760819339982
 20
136.9708856805924
 11
55.21974941348893
 21
146.9272182011017
 72
     1
 10
55.21974941348893
 20
146.9272182011017
 11
45.26358914786754
 21
136.9708856805924
 72
     1
 10
45.26358914786754
 20
136.9708856805924
 11
35.30708437247036
 21
146.9272182011017
 72
     1
 10
35.30708437247036
 20
146.9272182011017
 11
25.35092410684898
 21
136.9712301903682
 72
     1
 10
25.35092410684898
 20
136.9712301903682
 11
15.3945915863397
 21
146.9275627108775
 72
     1
 10
15.3945915863397
 20
146.9275627108775
 11
10.00077428158698
 21
141.5335731512369
 72
     1
 10
10.00077428158698
 20
141.5335731512369
 11
10.00077428158698
 21
134.8156325232116
 72
     1
 10
10.00077428158698
 20
134.8156325232116
 11
15.3945915863397
 21
140.2096220828522
 97
        0
 92
        1
 93
        3
 72
     1
 10
105.0010675062595
 20
197.4304565290531
 11
107.5714549434747
 21
200.0011884760442
 72
     1
 10
107.5714549434747
 20
200.0011884760442
 11
102.4303355592685
 21
200.0011884760442
 72
     1
 10
102.4303355592685
 20
200.0011884760442
 11
105.0010675062595
 21
197.4304565290531
 97
        0
 92
        1
 93
        3
 72
     1
 10
45.26290012831595
 20
197.4308010388289
 11
47.83328756553117
 21
200.0011884760442
 72
     1
 10
47.83328756553117
 20
200.0011884760442
 11
42.69268494598863
 21
200.0011884760442
 72
     1
 10
42.69268494598863
 20
200.0011884760442
 11
45.26290012831595
 21
197.4308010388289
 97
        0
 92
        1
 93
        3
 72
     1
 10
65.1755651693345
 20
197.4304565290531
 11
67.74612486143762
 21
200.0011884760442
 72
     1
 10
67.74612486143762
 20
200.0011884760442
 11
62.60500547723139
 21
200.0011884760442
 72
     1
 10
62.60500547723139
 20
200.0011884760442
 11
65.1755651693345
 21
197.4304565290531
 97
        0
 92
        1
 93
        3
 72
     1
 10
85.08823021035307
 20
197.4304565290531
 11
87.65878990245618
 21
200.0011884760442
 72
     1
 10
87.65878990245618
 20
200.0011884760442
 11
82.51767051824996
 21
200.0011884760442
 72
     1
 10
82.51767051824996
 20
200.0011884760442
 11
85.08823021035307
 21
197.4304565290531
 97
        0
 92
        1
 93
        3
 72
     1
 10
25.35040734218529
 20
197.4308010388289
 11
27.92062252451261
 21
200.0011884760442
 72
     1
 10
27.92062252451261
 20
200.0011884760442
 11
22.78019215985797
 21
200.0011884760442
 72
     1
 10
22.78019215985797
 20
200.0011884760442
 11
25.35040734218529
 21
197.4308010388289
 97
        0
 92
        1
 93
       70
 72
     1
 10
15.39407482167601
 20
193.9517690679513
 11
21.99178153794844
 21
187.3544068614547
 72
     1
 10
21.99178153794844
 20
187.3544068614547
 11
25.35057959707319
 21
183.9954365474421
 72
     1
 10
25.35057959707319
 20
183.9954365474421
 11
28.70937765619793
 21
187.3540623516789
 72
     1
 10
28.70937765619793
 20
187.3540623516789
 11
35.30673986269457
 21
193.9514245581755
 72
     1
 10
35.30673986269457
 20
193.9514245581755
 11
41.9042743240791
 21
187.3540623516789
 72
     1
 10
41.9042743240791
 20
187.3540623516789
 11
45.26307238320385
 21
183.9950920376663
 72
     1
 10
45.26307238320385
 20
183.9950920376663
 11
48.62204269721649
 21
187.3540623516789
 72
     1
 10
48.62204269721649
 20
187.3540623516789
 11
55.21923264882523
 21
193.9514245581755
 72
     1
 10
55.21923264882523
 20
193.9514245581755
 11
61.81676711020976
 21
187.3540623516789
 72
     1
 10
61.81676711020976
 20
187.3540623516789
 11
65.1757374242224
 21
183.9950920376663
 72
     1
 10
65.1757374242224
 20
183.9950920376663
 11
68.53453548334716
 21
187.3537178419031
 72
     1
 10
68.53453548334716
 20
187.3537178419031
 11
75.13189768984378
 21
193.9510800483997
 72
     1
 10
75.13189768984378
 20
193.9510800483997
 11
81.72925989634042
 21
187.3537178419031
 72
     1
 10
81.72925989634042
 20
187.3537178419031
 11
85.08823021035307
 21
183.9947475278905
 72
     1
 10
85.08823021035307
 20
183.9947475278905
 11
88.44702826947781
 21
187.3537178419031
 72
     1
 10
88.44702826947781
 20
187.3537178419031
 11
95.04439047597445
 21
193.9510800483997
 72
     1
 10
95.04439047597445
 20
193.9510800483997
 11
101.6420971922469
 21
187.3537178419031
 72
     1
 10
101.6420971922469
 20
187.3537178419031
 11
105.0010675062595
 21
183.9947475278905
 72
     1
 10
105.0010675062595
 20
183.9947475278905
 11
108.3596933104964
 21
187.3537178419031
 72
     1
 10
108.3596933104964
 20
187.3537178419031
 11
114.9574000267688
 21
193.9510800483997
 72
     1
 10
114.9574000267688
 20
193.9510800483997
 11
121.5547622332654
 21
187.3537178419031
 72
     1
 10
121.5547622332654
 20
187.3537178419031
 11
124.9137325472781
 21
183.9947475278905
 72
     1
 10
124.9137325472781
 20
183.9947475278905
 11
128.2727028612907
 21
187.3537178419031
 72
     1
 10
128.2727028612907
 20
187.3537178419031
 11
134.8700650677874
 21
193.9510800483997
 72
     1
 10
134.8700650677874
 20
193.9510800483997
 11
141.4677717840598
 21
187.3537178419031
 72
     1
 10
141.4677717840598
 20
187.3537178419031
 11
144.8263975882967
 21
183.9947475278905
 72
     1
 10
144.8263975882967
 20
183.9947475278905
 11
148.1853679023093
 21
187.3537178419031
 72
     1
 10
148.1853679023093
 20
187.3537178419031
 11
154.7830746185817
 21
193.9510800483997
 72
     1
 10
154.7830746185817
 20
193.9510800483997
 11
161.3804368250784
 21
187.3537178419031
 72
     1
 10
161.3804368250784
 20
187.3537178419031
 11
164.739407139091
 21
183.9947475278905
 72
     1
 10
164.739407139091
 20
183.9947475278905
 11
168.0983774531036
 21
187.3537178419031
 72
     1
 10
168.0983774531036
 20
187.3537178419031
 11
174.6957396596003
 21
193.9510800483997
 72
     1
 10
174.6957396596003
 20
193.9510800483997
 11
181.2931018660969
 21
187.3537178419031
 72
     1
 10
181.2931018660969
 20
187.3537178419031
 11
184.6520721801096
 21
183.9947475278905
 72
     1
 10
184.6520721801096
 20
183.9947475278905
 11
188.0110424941222
 21
187.3537178419031
 72
     1
 10
188.0110424941222
 20
187.3537178419031
 11
194.6084047006188
 21
193.9510800483997
 72
     1
 10
194.6084047006188
 20
193.9510800483997
 11
200.0010162211563
 21
188.5584685278623
 72
     1
 10
200.0010162211563
 20
188.5584685278623
 11
200.0010162211563
 21
195.2762369009997
 72
     1
 10
200.0010162211563
 20
195.2762369009997
 11
195.2760646461118
 21
200.0011884760442
 72
     1
 10
195.2760646461118
 20
200.0011884760442
 11
193.9407447551259
 21
200.0011884760442
 72
     1
 10
193.9407447551259
 20
200.0011884760442
 11
184.6520721801096
 21
190.7126881559158
 72
     1
 10
184.6520721801096
 20
190.7126881559158
 11
175.3633996050933
 21
200.0011884760442
 72
     1
 10
175.3633996050933
 20
200.0011884760442
 11
174.0280797141073
 21
200.0011884760442
 72
     1
 10
174.0280797141073
 20
200.0011884760442
 11
164.739407139091
 21
190.7126881559158
 72
     1
 10
164.739407139091
 20
190.7126881559158
 11
155.4507345640747
 21
200.0011884760442
 72
     1
 10
155.4507345640747
 20
200.0011884760442
 11
154.1150701633129
 21
200.0011884760442
 72
     1
 10
154.1150701633129
 20
200.0011884760442
 11
144.8263975882967
 21
190.7126881559158
 72
     1
 10
144.8263975882967
 20
190.7126881559158
 11
135.5380695230561
 21
200.0011884760442
 72
     1
 10
135.5380695230561
 20
200.0011884760442
 11
134.2020606125186
 21
200.0011884760442
 72
     1
 10
134.2020606125186
 20
200.0011884760442
 11
124.9137325472781
 21
190.7126881559158
 72
     1
 10
124.9137325472781
 20
190.7126881559158
 11
115.6254044820376
 21
200.0011884760442
 72
     1
 10
115.6254044820376
 20
200.0011884760442
 11
114.2893955715
 21
200.0011884760442
 72
     1
 10
114.2893955715
 20
200.0011884760442
 11
105.0010675062595
 21
190.7126881559158
 72
     1
 10
105.0010675062595
 20
190.7126881559158
 11
95.71222267635532
 21
200.0011884760442
 72
     1
 10
95.71222267635532
 20
200.0011884760442
 11
94.37655827559358
 21
200.0011884760442
 72
     1
 10
94.37655827559358
 20
200.0011884760442
 11
85.08823021035307
 21
190.7126881559158
 72
     1
 10
85.08823021035307
 20
190.7126881559158
 11
75.79972989022467
 21
200.0011884760442
 72
     1
 10
75.79972989022467
 20
200.0011884760442
 11
74.46406548946291
 21
200.0011884760442
 72
     1
 10
74.46406548946291
 20
200.0011884760442
 11
65.1755651693345
 21
190.7126881559158
 72
     1
 10
65.1755651693345
 20
190.7126881559158
 11
55.8874093589819
 21
200.0011884760442
 72
     1
 10
55.8874093589819
 20
200.0011884760442
 11
54.55105593866856
 21
200.0011884760442
 72
     1
 10
54.55105593866856
 20
200.0011884760442
 11
45.26307238320385
 21
190.7130326656916
 72
     1
 10
45.26307238320385
 20
190.7130326656916
 11
35.97491657285124
 21
200.0011884760442
 72
     1
 10
35.97491657285124
 20
200.0011884760442
 11
34.6385631525379
 21
200.0011884760442
 72
     1
 10
34.6385631525379
 20
200.0011884760442
 11
25.35040734218529
 21
190.7130326656916
 72
     1
 10
25.35040734218529
 20
190.7130326656916
 11
16.06259604160848
 21
200.0011884760442
 72
     1
 10
16.06259604160848
 20
200.0011884760442
 11
14.72572585663144
 21
200.0011884760442
 72
     1
 10
14.72572585663144
 20
200.0011884760442
 11
10.00077428158698
 21
195.2762369009997
 72
     1
 10
10.00077428158698
 20
195.2762369009997
 11
10.00077428158698
 21
188.5582962729744
 72
     1
 10
10.00077428158698
 20
188.5582962729744
 11
15.39407482167601
 21
193.9517690679513
 97
        0
 92
        1
 93
        3
 72
     1
 10
124.9137325472781
 20
197.4304565290531
 11
127.4841199844933
 21
200.0011884760442
 72
     1
 10
127.4841199844933
 20
200.0011884760442
 11
122.3433451100629
 21
200.0011884760442
 72
     1
 10
122.3433451100629
 20
200.0011884760442
 11
124.9137325472781
 21
197.4304565290531
 97
        0
 92
        1
 93
        3
 72
     1
 10
194.6090937201704
 20
12.5708172090264
 11
192.0387062829552
 21
10.00042977181119
 72
     1
 10
192.0387062829552
 20
10.00042977181119
 11
197.1791366476099
 21
10.00042977181119
 72
     1
 10
197.1791366476099
 20
10.00042977181119
 11
194.6090937201704
 21
12.5708172090264
 97
        0
 92
        1
 93
        3
 72
     1
 10
174.6964286791519
 20
12.5711617188022
 11
172.1253522223851
 21
10.00042977181119
 72
     1
 10
172.1253522223851
 20
10.00042977181119
 11
177.2671606261429
 21
10.00042977181119
 72
     1
 10
177.2671606261429
 20
10.00042977181119
 11
174.6964286791519
 21
12.5711617188022
 97
        0
 92
        1
 93
        3
 72
     1
 10
12.82437640401239
 20
10.00042977181119
 11
17.9672183370976
 21
10.00042977181119
 72
     1
 10
17.9672183370976
 20
10.00042977181119
 11
15.39579737055499
 21
12.57185073835379
 72
     1
 10
15.39579737055499
 20
12.57185073835379
 11
12.82437640401239
 21
10.00042977181119
 97
        0
 92
        1
 93
        3
 72
     1
 10
32.73686919014305
 20
10.00042977181119
 11
37.87988337811615
 21
10.00042977181119
 72
     1
 10
37.87988337811615
 20
10.00042977181119
 11
35.30829015668565
 21
12.57185073835379
 72
     1
 10
35.30829015668565
 20
12.57185073835379
 11
32.73686919014305
 21
10.00042977181119
 97
        0
 92
        1
 93
        3
 72
     1
 10
52.64936197627371
 20
10.00042977181119
 11
57.79220390935892
 21
10.00042977181119
 72
     1
 10
57.79220390935892
 20
10.00042977181119
 11
55.22095519770421
 21
12.57185073835379
 72
     1
 10
55.22095519770421
 20
12.57185073835379
 11
52.64936197627371
 21
10.00042977181119
 97
        0
 92
        1
 93
        3
 72
     1
 10
77.70486895037747
 20
10.00042977181119
 11
75.13362023872277
 21
12.57185073835379
 72
     1
 10
75.13362023872277
 20
12.57185073835379
 11
72.56219927218017
 21
10.00042977181119
 72
     1
 10
72.56219927218017
 20
10.00042977181119
 11
77.70486895037747
 21
10.00042977181119
 97
        0
 92
        1
 93
        3
 72
     1
 10
92.47469205831082
 20
10.00042977181119
 11
97.61753399139603
 21
10.00042977181119
 72
     1
 10
97.61753399139603
 20
10.00042977181119
 11
95.04611302485343
 21
12.57185073835379
 72
     1
 10
95.04611302485343
 20
12.57185073835379
 11
92.47469205831082
 21
10.00042977181119
 97
        0
 92
        1
 93
        3
 72
     1
 10
164.739407139091
 20
197.4304565290531
 11
167.310139086082
 21
200.0011884760442
 72
     1
 10
167.310139086082
 20
200.0011884760442
 11
162.1683306823242
 21
200.0011884760442
 72
     1
 10
162.1683306823242
 20
200.0011884760442
 11
164.739407139091
 21
197.4304565290531
 97
        0
 92
        1
 93
        3
 72
     1
 10
144.8263975882967
 20
197.4304565290531
 11
147.3967850255119
 21
200.0011884760442
 72
     1
 10
147.3967850255119
 20
200.0011884760442
 11
142.2560101510814
 21
200.0011884760442
 72
     1
 10
142.2560101510814
 20
200.0011884760442
 11
144.8263975882967
 21
197.4304565290531
 97
        0
 92
        1
 93
        3
 72
     1
 10
184.6520721801096
 20
197.4304565290531
 11
187.2228041271006
 21
200.0011884760442
 72
     1
 10
187.2228041271006
 20
200.0011884760442
 11
182.0809957233427
 21
200.0011884760442
 72
     1
 10
182.0809957233427
 20
200.0011884760442
 11
184.6520721801096
 21
197.4304565290531
 97
        0
 75
     2
 76
     1
 98
        0
  0
ENDSEC
  0
SECTION
  2
OBJECTS
  0
DICTIONARY
  5
C
330
0
100
AcDbDictionary
281
     1
  3
ACAD_GROUP
350
D
  3
ACAD_LAYOUT
350
1A
  3
ACAD_MLINESTYLE
350
17
  3
ACAD_PLOTSETTINGS
350
19
  3
ACAD_PLOTSTYLENAME
350
E
  3
ACAD_TABLESTYLE
350
434
  3
ACAD_VISUALSTYLE
350
2A
  0
DICTIONARY
  5
D
102
{ACAD_REACTORS
330
C
102
}
330
C
100
AcDbDictionary
281
     1
  0
DICTIONARY
  5
1A
102
{ACAD_REACTORS
330
C
102
}
330
C
100
AcDbDictionary
281
     1
  3
Layout1
350
1E
  3
Layout2
350
26
  3
Model
350
22
  0
DICTIONARY
  5
17
102
{ACAD_REACTORS
330
C
102
}
330
C
100
AcDbDictionary
281
     1
  3
Standard
350
18
  0
DICTIONARY
  5
19
102
{ACAD_REACTORS
330
C
102
}
330
C
100
AcDbDictionary
281
     1
  0
ACDBDICTIONARYWDFLT
  5
E
102
{ACAD_REACTORS
330
C
102
}
330
C
100
AcDbDictionary
281
     1
  3
Normal
350
F
100
AcDbDictionaryWithDefault
340
F
  0
DICTIONARY
  5
434
102
{ACAD_REACTORS
330
C
102
}
330
C
100
AcDbDictionary
281
     1
  0
DICTIONARY
  5
2A
102
{ACAD_REACTORS
330
C
102
}
330
C
100
AcDbDictionary
281
     1
  3
2dWireframe
350
2F
  3
3D Hidden
350
31
  3
3dWireframe
350
30
  3
Basic
350
32
  3
Brighten
350
36
  3
ColorChange
350
3A
  3
Conceptual
350
34
  3
Dim
350
35
  3
Facepattern
350
39
  3
Flat
350
2B
  3
FlatWithEdges
350
2C
  3
Gouraud
350
2D
  3
GouraudWithEdges
350
2E
  3
Linepattern
350
38
  3
Realistic
350
33
  3
Thicken
350
37
  0
LAYOUT
  5
1E
102
{ACAD_REACTORS
330
1A
102
}
330
1A
100
AcDbPlotSettings
  1

  2
none_device
  4

  6

 40
0.0
 41
0.0
 42
0.0
 43
0.0
 44
0.0
 45
0.0
 46
0.0
 47
0.0
 48
0.0
 49
0.0
140
0.0
141
0.0
142
1.0
143
1.0
 70
   688
 72
     0
 73
     0
 74
     5
  7

 75
    16
 76
     0
 77
     2
 78
   300
147
1.0
148
0.0
149
0.0
100
AcDbLayout
  1
Layout1
 70
     1
 71
     1
 10
0.0
 20
0.0
 11
12.0
 21
9.0
 12
0.0
 22
0.0
 32
0.0
 14
1.000000000000000E+20
 24
1.000000000000000E+20
 34
1.000000000000000E+20
 15
-1.000000000000000E+20
 25
-1.000000000000000E+20
 35
-1.000000000000000E+20
146
0.0
 13
0.0
 23
0.0
 33
0.0
 16
1.0
 26
0.0
 36
0.0
 17
0.0
 27
1.0
 37
0.0
 76
     0
330
1B
  0
LAYOUT
  5
26
102
{ACAD_REACTORS
330
1A
102
}
330
1A
100
AcDbPlotSettings
  1

  2
none_device
  4

  6

 40
0.0
 41
0.0
 42
0.0
 43
0.0
 44
0.0
 45
0.0
 46
0.0
 47
0.0
 48
0.0
 49
0.0
140
0.0
141
0.0
142
1.0
143
1.0
 70
   688
 72
     0
 73
     0
 74
     5
  7

 75
    16
 76
     0
 77
     2
 78
   300
147
1.0
148
0.0
149
0.0
100
AcDbLayout
  1
Layout2
 70
     1
 71
     2
 10
0.0
 20
0.0
 11
0.0
 21
0.0
 12
0.0
 22
0.0
 32
0.0
 14
0.0
 24
0.0
 34
0.0
 15
0.0
 25
0.0
 35
0.0
146
0.0
 13
0.0
 23
0.0
 33
0.0
 16
1.0
 26
0.0
 36
0.0
 17
0.0
 27
1.0
 37
0.0
 76
     0
330
23
  0
LAYOUT
  5
22
102
{ACAD_REACTORS
330
1A
102
}
330
1A
100
AcDbPlotSettings
  1

  2
none_device
  4

  6

 40
0.0
 41
0.0
 42
0.0
 43
0.0
 44
0.0
 45
0.0
 46
0.0
 47
0.0
 48
0.0
 49
0.0
140
0.0
141
0.0
142
1.0
143
1.0
 70
  1712
 72
     0
 73
     0
 74
     0
  7

 75
     0
 76
     0
 77
     2
 78
   300
147
1.0
148
0.0
149
0.0
100
AcDbLayout
  1
Model
 70
     1
 71
     0
 10
0.0
 20
0.0
 11
12.0
 21
9.0
 12
0.0
 22
0.0
 32
0.0
 14
1.000000000000000E+20
 24
1.000000000000000E+20
 34
1.000000000000000E+20
 15
-1.000000000000000E+20
 25
-1.000000000000000E+20
 35
-1.000000000000000E+20
146
0.0
 13
0.0
 23
0.0
 33
0.0
 16
1.0
 26
0.0
 36
0.0
 17
0.0
 27
1.0
 37
0.0
 76
     0
330
1F
331
29
  0
MLINESTYLE
  5
18
102
{ACAD_REACTORS
330
17
102
}
330
17
100
AcDbMlineStyle
  2
Standard
 70
     0
  3

 62
   256
 51
90.0
 52
90.0
 71
     2
 49
0.5
 62
   256
  6
BYLAYER
 49
-0.5
 62
   256
  6
BYLAYER
  0
ACDBPLACEHOLDER
  5
F
102
{ACAD_REACTORS
330
E
102
}
330
E
  0
VISUALSTYLE
  5
2F
102
{ACAD_REACTORS
330
2A
102
}
330
2A
100
AcDbVisualStyle
  2
2dWireframe
 70
     4
 71
     0
 72
     2
 73
     0
 90
        0
 40
-0.6
 41
-30.0
 62
     5
 63
     7
421
 16777215
 74
     1
 91
        4
 64
     7
 65
   257
 75
     1
175
     1
 42
1.0
 92
        0
 66
   257
 43
1.0
 76
     1
 77
     6
 78
     2
 67
     7
 79
     5
170
     0
171
     0
290
     0
174
     0
 93
        1
 44
0.0
173
     0
291
     0
 45
0.0
1001
ACAD
1000
AcDbSavedByObjectVersion
1070
     0
  0
VISUALSTYLE
  5
31
102
{ACAD_REACTORS
330
2A
102
}
330
2A
100
AcDbVisualStyle
  2
3D Hidden
 70
     6
 71
     1
 72
     2
 73
     2
 90
        0
 40
-0.6
 41
-30.0
 62
     5
 63
     7
421
 16777215
 74
     2
 91
        2
 64
     7
 65
   257
 75
     2
175
     1
 42
40.0
 92
        0
 66
   257
 43
1.0
 76
     1
 77
     6
 78
     2
 67
     7
 79
     3
170
     0
171
     0
290
     0
174
     0
 93
        1
 44
0.0
173
     0
291
     0
 45
0.0
1001
ACAD
1000
AcDbSavedByObjectVersion
1070
     0
  0
VISUALSTYLE
  5
30
102
{ACAD_REACTORS
330
2A
102
}
330
2A
100
AcDbVisualStyle
  2
3dWireframe
 70
     5
 71
     0
 72
     2
 73
     0
 90
        0
 40
-0.6
 41
-30.0
 62
     5
 63
     7
421
 16777215
 74
     1
 91
        4
 64
     7
 65
   257
 75
     1
175
     1
 42
1.0
 92
        0
 66
   257
 43
1.0
 76
     1
 77
     6
 78
     2
 67
     7
 79
     5
170
     0
171
     0
290
     0
174
     0
 93
        1
 44
0.0
173
     0
291
     0
 45
0.0
1001
ACAD
1000
AcDbSavedByObjectVersion
1070
     0
  0
VISUALSTYLE
  5
32
102
{ACAD_REACTORS
330
2A
102
}
330
2A
100
AcDbVisualStyle
  2
Basic
 70
     7
 71
     1
 72
     0
 73
     1
 90
        0
 40
-0.6
 41
-30.0
 62
     5
 63
     7
421
 16777215
 74
     0
 91
        4
 64
     7
 65
   257
 75
     1
175
     1
 42
1.0
 92
        8
 66
     7
 43
1.0
 76
     1
 77
     6
 78
     2
 67
     7
 79
     5
170
     0
171
     0
290
     0
174
     0
 93
        1
 44
0.0
173
     0
291
     1
 45
0.0
1001
ACAD
1000
AcDbSavedByObjectVersion
1070
     0
  0
VISUALSTYLE
  5
36
102
{ACAD_REACTORS
330
2A
102
}
330
2A
100
AcDbVisualStyle
  2
Brighten
 70
    12
 71
     2
 72
     2
 73
     0
 90
        0
 40
-0.6
 41
-30.0
 62
     5
 63
     7
421
 16777215
 74
     1
 91
        4
 64
     7
 65
   257
 75
     1
175
     1
 42
1.0
 92
        8
 66
     7
 43
1.0
 76
     1
 77
     6
 78
     2
 67
     7
 79
     5
170
     0
171
     0
290
     0
174
     0
 93
        1
 44
50.0
173
     0
291
     1
 45
0.0
1001
ACAD
1000
AcDbSavedByObjectVersion
1070
     0
  0
VISUALSTYLE
  5
3A
102
{ACAD_REACTORS
330
2A
102
}
330
2A
100
AcDbVisualStyle
  2
ColorChange
 70
    16
 71
     2
 72
     2
 73
     3
 90
        0
 40
-0.6
 41
-30.0
 62
     5
 63
     8
421
  8421504
 74
     1
 91
        4
 64
     7
 65
   257
 75
     1
175
     1
 42
1.0
 92
        8
 66
     8
424
  8421504
 43
1.0
 76
     1
 77
     6
 78
     2
 67
     7
 79
     5
170
     0
171
     0
290
     0
174
     0
 93
        1
 44
0.0
173
     0
291
     1
 45
0.0
1001
ACAD
1000
AcDbSavedByObjectVersion
1070
     0
  0
VISUALSTYLE
  5
34
102
{ACAD_REACTORS
330
2A
102
}
330
2A
100
AcDbVisualStyle
  2
Conceptual
 70
     9
 71
     3
 72
     2
 73
     0
 90
        0
 40
-0.6
 41
-30.0
 62
     5
 63
     7
421
 16777215
 74
     2
 91
        2
 64
     7
 65
   257
 75
     1
175
     1
 42
40.0
 92
        8
 66
     7
 43
1.0
 76
     1
 77
     6
 78
     2
 67
     7
 79
     3
170
     0
171
     0
290
     0
174
     0
 93
        1
 44
0.0
173
     0
291
     0
 45
0.0
1001
ACAD
1000
AcDbSavedByObjectVersion
1070
     0
  0
VISUALSTYLE
  5
35
102
{ACAD_REACTORS
330
2A
102
}
330
2A
100
AcDbVisualStyle
  2
Dim
 70
    11
 71
     2
 72
     2
 73
     0
 90
        0
 40
-0.6
 41
-30.0
 62
     5
 63
     7
421
 16777215
 74
     1
 91
        4
 64
     7
 65
   257
 75
     1
175
     1
 42
1.0
 92
        8
 66
     7
 43
1.0
 76
     1
 77
     6
 78
     2
 67
     7
 79
     5
170
     0
171
     0
290
     0
174
     0
 93
        1
 44
-50.0
173
     0
291
     1
 45
0.0
1001
ACAD
1000
AcDbSavedByObjectVersion
1070
     0
  0
VISUALSTYLE
  5
39
102
{ACAD_REACTORS
330
2A
102
}
330
2A
100
AcDbVisualStyle
  2
Facepattern
 70
    15
 71
     2
 72
     2
 73
     0
 90
        0
 40
-0.6
 41
-30.0
 62
     5
 63
     7
421
 16777215
 74
     1
 91
        4
 64
     7
 65
   257
 75
     1
175
     1
 42
1.0
 92
        8
 66
     7
 43
1.0
 76
     1
 77
     6
 78
     2
 67
     7
 79
     5
170
     0
171
     0
290
     0
174
     0
 93
        1
 44
0.0
173
     0
291
     1
 45
0.0
1001
ACAD
1000
AcDbSavedByObjectVersion
1070
     0
  0
VISUALSTYLE
  5
2B
102
{ACAD_REACTORS
330
2A
102
}
330
2A
100
AcDbVisualStyle
  2
Flat
 70
     0
 71
     2
 72
     1
 73
     1
 90
        2
 40
-0.6
 41
30.0
 62
     5
 63
     7
421
 16777215
 74
     0
 91
        4
 64
     7
 65
   257
 75
     1
175
     1
 42
1.0
 92
        8
 66
     7
 43
1.0
 76
     1
 77
     6
 78
     2
 67
     7
 79
     5
170
     0
171
     0
290
     0
174
     0
 93
       13
 44
0.0
173
     0
291
     1
 45
0.0
1001
ACAD
1000
AcDbSavedByObjectVersion
1070
     0
  0
VISUALSTYLE
  5
2C
102
{ACAD_REACTORS
330
2A
102
}
330
2A
100
AcDbVisualStyle
  2
FlatWithEdges
 70
     1
 71
     2
 72
     1
 73
     1
 90
        2
 40
-0.6
 41
30.0
 62
     5
 63
     7
421
 16777215
 74
     1
 91
        4
 64
     7
 65
   257
 75
     1
175
     1
 42
1.0
 92
        0
 66
   257
 43
1.0
 76
     1
 77
     6
 78
     2
 67
     7
 79
     5
170
     0
171
     0
290
     0
174
     0
 93
       13
 44
0.0
173
     0
291
     1
 45
0.0
1001
ACAD
1000
AcDbSavedByObjectVersion
1070
     0
  0
VISUALSTYLE
  5
2D
102
{ACAD_REACTORS
330
2A
102
}
330
2A
100
AcDbVisualStyle
  2
Gouraud
 70
     2
 71
     2
 72
     2
 73
     1
 90
        2
 40
-0.6
 41
30.0
 62
     5
 63
     7
421
 16777215
 74
     0
 91
        4
 64
     7
 65
   257
 75
     1
175
     1
 42
1.0
 92
        0
 66
     7
 43
1.0
 76
     1
 77
     6
 78
     2
 67
     7
 79
     5
170
     0
171
     0
290
     0
174
     0
 93
       13
 44
0.0
173
     0
291
     1
 45
0.0
1001
ACAD
1000
AcDbSavedByObjectVersion
1070
     0
  0
VISUALSTYLE
  5
2E
102
{ACAD_REACTORS
330
2A
102
}
330
2A
100
AcDbVisualStyle
  2
GouraudWithEdges
 70
     3
 71
     2
 72
     2
 73
     1
 90
        2
 40
-0.6
 41
30.0
 62
     5
 63
     7
421
 16777215
 74
     1
 91
        4
 64
     7
 65
   257
 75
     1
175
     1
 42
1.0
 92
        0
 66
   257
 43
1.0
 76
     1
 77
     6
 78
     2
 67
     7
 79
     5
170
     0
171
     0
290
     0
174
     0
 93
       13
 44
0.0
173
     0
291
     1
 45
0.0
1001
ACAD
1000
AcDbSavedByObjectVersion
1070
     0
  0
VISUALSTYLE
  5
38
102
{ACAD_REACTORS
330
2A
102
}
330
2A
100
AcDbVisualStyle
  2
Linepattern
 70
    14
 71
     2
 72
     2
 73
     0
 90
        0
 40
-0.6
 41
-30.0
 62
     5
 63
     7
421
 16777215
 74
     1
 91
        4
 64
     7
 65
   257
 75
     7
175
     7
 42
1.0
 92
        8
 66
     7
 43
1.0
 76
     1
 77
     6
 78
     2
 67
     7
 79
     5
170
     0
171
     0
290
     0
174
     0
 93
        1
 44
0.0
173
     0
291
     1
 45
0.0
1001
ACAD
1000
AcDbSavedByObjectVersion
1070
     0
  0
VISUALSTYLE
  5
33
102
{ACAD_REACTORS
330
2A
102
}
330
2A
100
AcDbVisualStyle
  2
Realistic
 70
     8
 71
     2
 72
     2
 73
     0
 90
        0
 40
-0.6
 41
-30.0
 62
     5
 63
     7
421
 16777215
 74
     1
 91
        0
 64
     7
 65
   257
 75
     1
175
     1
 42
1.0
 92
        8
 66
     8
424
  7895160
 43
1.0
 76
     1
 77
     6
 78
     2
 67
     7
 79
     5
170
     0
171
     0
290
     0
174
     0
 93
       13
 44
0.0
173
     0
291
     0
 45
0.0
1001
ACAD
1000
AcDbSavedByObjectVersion
1070
     0
  0
VISUALSTYLE
  5
37
102
{ACAD_REACTORS
330
2A
102
}
330
2A
100
AcDbVisualStyle
  2
Thicken
 70
    13
 71
     2
 72
     2
 73
     0
 90
        0
 40
-0.6
 41
-30.0
 62
     5
 63
     7
421
 16777215
 74
     1
 91
        4
 64
     7
 65
   257
 75
     1
175
     1
 42
1.0
 92
       12
 66
     7
 43
1.0
 76
     1
 77
     6
 78
     2
 67
     7
 79
     5
170
     0
171
     0
290
     0
174
     0
 93
        1
 44
0.0
173
     0
291
     1
 45
0.0
1001
ACAD
1000
AcDbSavedByObjectVersion
1070
     0
  0
ENDSEC
  0
EOF
