  0
SECTION
  2
HEADER
  9
$ACADVER
  1
AC1018
  9
$ACADMAINTVER
 70
     0
  9
$DWGCODEPAGE
  3
ASCII
  9
$INSBASE
 10
0.0
 20
0.0
 30
0.0
  9
$EXTMIN
 10
1.000000000000000E+20
 20
1.000000000000000E+20
 30
1.000000000000000E+20
  9
$EXTMAX
 10
-1.000000000000000E+20
 20
-1.000000000000000E+20
 30
-1.000000000000000E+20
  9
$LIMMIN
 10
0.0
 20
0.0
  9
$LIMMAX
 10
12.0
 20
9.0
  9
$ORTHOMODE
 70
     0
  9
$REGENMODE
 70
     1
  9
$FILLMODE
 70
     1
  9
$QTEXTMODE
 70
     0
  9
$MIRRTEXT
 70
     1
  9
$LTSCALE
 40
1.0
  9
$ATTMODE
 70
     1
  9
$TEXTSIZE
 40
0.2
  9
$TRACEWID
 40
0.05
  9
$TEXTSTYLE
  7
Standard
  9
$CLAYER
  8
0
  9
$CELTYPE
  6
ByLayer
  9
$CECOLOR
 62
   256
  9
$CELTSCALE
 40
1.0
  9
$DISPSILH
 70
     0
  9
$DIMSCALE
 40
1.0
  9
$DIMASZ
 40
0.18
  9
$DIMEXO
 40
0.0625
  9
$DIMDLI
 40
0.38
  9
$DIMRND
 40
0.0
  9
$DIMDLE
 40
0.0
  9
$DIMEXE
 40
0.18
  9
$DIMTP
 40
0.0
  9
$DIMTM
 40
0.0
  9
$DIMTXT
 40
0.18
  9
$DIMCEN
 40
0.09
  9
$DIMTSZ
 40
0.0
  9
$DIMTOL
 70
     0
  9
$DIMLIM
 70
     0
  9
$DIMTIH
 70
     1
  9
$DIMTOH
 70
     1
  9
$DIMSE1
 70
     0
  9
$DIMSE2
 70
     0
  9
$DIMTAD
 70
     0
  9
$DIMZIN
 70
     0
  9
$DIMBLK
  1

  9
$DIMASO
 70
     1
  9
$DIMSHO
 70
     1
  9
$DIMPOST
  1

  9
$DIMAPOST
  1

  9
$DIMALT
 70
     0
  9
$DIMALTD
 70
     2
  9
$DIMALTF
 40
25.4
  9
$DIMLFAC
 40
1.0
  9
$DIMTOFL
 70
     0
  9
$DIMTVP
 40
0.0
  9
$DIMTIX
 70
     0
  9
$DIMSOXD
 70
     0
  9
$DIMSAH
 70
     0
  9
$DIMBLK1
  1

  9
$DIMBLK2
  1

  9
$DIMSTYLE
  2
Standard
  9
$DIMCLRD
 70
     0
  9
$DIMCLRE
 70
     0
  9
$DIMCLRT
 70
     0
  9
$DIMTFAC
 40
1.0
  9
$DIMGAP
 40
0.09
  9
$DIMJUST
 70
     0
  9
$DIMSD1
 70
     0
  9
$DIMSD2
 70
     0
  9
$DIMTOLJ
 70
     1
  9
$DIMTZIN
 70
     0
  9
$DIMALTZ
 70
     0
  9
$DIMALTTZ
 70
     0
  9
$DIMUPT
 70
     0
  9
$DIMDEC
 70
     4
  9
$DIMTDEC
 70
     4
  9
$DIMALTU
 70
     2
  9
$DIMALTTD
 70
     2
  9
$DIMTXSTY
  7
Standard
  9
$DIMAUNIT
 70
     0
  9
$DIMADEC
 70
     0
  9
$DIMALTRND
 40
0.0
  9
$DIMAZIN
 70
     0
  9
$DIMDSEP
 70
    46
  9
$DIMATFIT
 70
     3
  9
$DIMFRAC
 70
     0
  9
$DIMLDRBLK
  1

  9
$DIMLUNIT
 70
     2
  9
$DIMLWD
 70
    -2
  9
$DIMLWE
 70
    -2
  9
$DIMTMOVE
 70
     0
  9
$LUNITS
 70
     2
  9
$LUPREC
 70
     4
  9
$SKETCHINC
 40
0.1
  9
$FILLETRAD
 40
0.5
  9
$AUNITS
 70
     0
  9
$AUPREC
 70
     0
  9
$MENU
  1
.
  9
$ELEVATION
 40
0.0
  9
$PELEVATION
 40
0.0
  9
$THICKNESS
 40
0.0
  9
$LIMCHECK
 70
     0
  9
$CHAMFERA
 40
0.5
  9
$CHAMFERB
 40
0.5
  9
$CHAMFERC
 40
1.0
  9
$CHAMFERD
 40
0.0
  9
$SKPOLY
 70
     0
  9
$TDCREATE
 40
2457052.834321169
  9
$TDUCREATE
 40
2457052.792654502
  9
$TDUPDATE
 40
2457052.83432118
  9
$TDUUPDATE
 40
2457052.792654514
  9
$TDINDWG
 40
0.0000000116
  9
$TDUSRTIMER
 40
0.0000000116
  9
$USRTIMER
 70
     1
  9
$ANGBASE
 50
0.0
  9
$ANGDIR
 70
     0
  9
$PDMODE
 70
     0
  9
$PDSIZE
 40
0.0
  9
$PLINEWID
 40
0.0
  9
$SPLFRAME
 70
     0
  9
$SPLINETYPE
 70
     6
  9
$SPLINESEGS
 70
     8
  9
$HANDSEED
  5
1DE
  9
$SURFTAB1
 70
     6
  9
$SURFTAB2
 70
     6
  9
$SURFTYPE
 70
     6
  9
$SURFU
 70
     6
  9
$SURFV
 70
     6
  9
$UCSBASE
  2

  9
$UCSNAME
  2

  9
$UCSORG
 10
0.0
 20
0.0
 30
0.0
  9
$UCSXDIR
 10
1.0
 20
0.0
 30
0.0
  9
$UCSYDIR
 10
0.0
 20
1.0
 30
0.0
  9
$UCSORTHOREF
  2

  9
$UCSORTHOVIEW
 70
     0
  9
$UCSORGTOP
 10
0.0
 20
0.0
 30
0.0
  9
$UCSORGBOTTOM
 10
0.0
 20
0.0
 30
0.0
  9
$UCSORGLEFT
 10
0.0
 20
0.0
 30
0.0
  9
$UCSORGRIGHT
 10
0.0
 20
0.0
 30
0.0
  9
$UCSORGFRONT
 10
0.0
 20
0.0
 30
0.0
  9
$UCSORGBACK
 10
0.0
 20
0.0
 30
0.0
  9
$PUCSBASE
  2

  9
$PUCSNAME
  2

  9
$PUCSORG
 10
0.0
 20
0.0
 30
0.0
  9
$PUCSXDIR
 10
1.0
 20
0.0
 30
0.0
  9
$PUCSYDIR
 10
0.0
 20
1.0
 30
0.0
  9
$PUCSORTHOREF
  2

  9
$PUCSORTHOVIEW
 70
     0
  9
$PUCSORGTOP
 10
0.0
 20
0.0
 30
0.0
  9
$PUCSORGBOTTOM
 10
0.0
 20
0.0
 30
0.0
  9
$PUCSORGLEFT
 10
0.0
 20
0.0
 30
0.0
  9
$PUCSORGRIGHT
 10
0.0
 20
0.0
 30
0.0
  9
$PUCSORGFRONT
 10
0.0
 20
0.0
 30
0.0
  9
$PUCSORGBACK
 10
0.0
 20
0.0
 30
0.0
  9
$USERI1
 70
     0
  9
$USERI2
 70
     0
  9
$USERI3
 70
     0
  9
$USERI4
 70
     0
  9
$USERI5
 70
     0
  9
$USERR1
 40
0.0
  9
$USERR2
 40
0.0
  9
$USERR3
 40
0.0
  9
$USERR4
 40
0.0
  9
$USERR5
 40
0.0
  9
$WORLDVIEW
 70
     1
  9
$SHADEDGE
 70
     3
  9
$SHADEDIF
 70
    70
  9
$TILEMODE
 70
     1
  9
$MAXACTVP
 70
    64
  9
$PINSBASE
 10
0.0
 20
0.0
 30
0.0
  9
$PLIMCHECK
 70
     0
  9
$PEXTMIN
 10
1.000000000000000E+20
 20
1.000000000000000E+20
 30
1.000000000000000E+20
  9
$PEXTMAX
 10
-1.000000000000000E+20
 20
-1.000000000000000E+20
 30
-1.000000000000000E+20
  9
$PLIMMIN
 10
0.0
 20
0.0
  9
$PLIMMAX
 10
12.0
 20
9.0
  9
$UNITMODE
 70
     0
  9
$VISRETAIN
 70
     1
  9
$PLINEGEN
 70
     0
  9
$PSLTSCALE
 70
     1
  9
$TREEDEPTH
 70
  3020
  9
$CMLSTYLE
  2
Standard
  9
$CMLJUST
 70
     0
  9
$CMLSCALE
 40
1.0
  9
$PROXYGRAPHICS
 70
     1
  9
$MEASUREMENT
 70
     0
  9
$CELWEIGHT
370
    -1
  9
$ENDCAPS
280
     0
  9
$JOINSTYLE
280
     0
  9
$LWDISPLAY
290
     1
  9
$INSUNITS
 70
     1
  9
$HYPERLINKBASE
  1

  9
$STYLESHEET
  1

  9
$XEDIT
290
     1
  9
$CEPSNTYPE
380
     0
  9
$PSTYLEMODE
290
     1
  9
$FINGERPRINTGUID
  2
{2CDCAC4C-D414-408D-B60A-21F0B5F4FBE1}
  9
$VERSIONGUID
  2
{FAEB1C32-E019-11D5-929B-00C0DF256EC4}
  9
$EXTNAMES
290
     1
  9
$PSVPSCALE
 40
0.0
  9
$OLESTARTUP
290
     0
  9
$SORTENTS
280
   127
  9
$INDEXCTL
280
     0
  9
$HIDETEXT
280
     1
  9
$XCLIPFRAME
290
     0
  9
$HALOGAP
280
     0
  9
$OBSCOLOR
 70
   257
  9
$OBSLTYPE
280
     0
  9
$INTERSECTIONDISPLAY
280
     0
  9
$INTERSECTIONCOLOR
 70
   257
  9
$DIMASSOC
280
     2
  9
$PROJECTNAME
  1

  0
ENDSEC
  0
SECTION
  2
CLASSES
  0
CLASS
  1
ACDBDICTIONARYWDFLT
  2
AcDbDictionaryWithDefault
  3
ObjectDBX Classes
 90
        0
 91
        3
280
     0
281
     0
  0
CLASS
  1
VISUALSTYLE
  2
AcDbVisualStyle
  3
ObjectDBX Classes
 90
     4095
 91
        3
280
     0
281
     0
  0
ENDSEC
  0
SECTION
  2
TABLES
  0
TABLE
  2
VPORT
  5
8
330
0
100
AcDbSymbolTable
 70
     1
  0
VPORT
  5
29
330
8
100
AcDbSymbolTableRecord
100
AcDbViewportTableRecord
  2
*Active
 70
     0
 10
0.0
 20
0.0
 11
1.0
 21
1.0
 12
0.0
 22
0.0
 13
0.0
 23
0.0
 14
0.5
 24
0.5
 15
0.5
 25
0.5
 16
0.0
 26
0.0
 36
1.0
 17
152.5006973539321
 27
152.5006973539321
 37
0.0
 40
76.20005024969983
 41
1.333333333333333
 42
50.0
 43
0.0
 44
0.0
 50
0.0
 51
0.0
 71
     0
 72
   100
 73
     1
 74
     3
 75
     0
 76
     0
 77
     0
 78
     0
281
     0
 65
     1
110
0.0
120
0.0
130
0.0
111
1.0
121
0.0
131
0.0
112
0.0
122
1.0
132
0.0
 79
     0
146
0.0
  0
ENDTAB
  0
TABLE
  2
LTYPE
  5
5
330
0
100
AcDbSymbolTable
 70
     1
  0
LTYPE
  5
14
330
5
100
AcDbSymbolTableRecord
100
AcDbLinetypeTableRecord
  2
ByBlock
 70
     0
  3

 72
    65
 73
     0
 40
0.0
  0
LTYPE
  5
15
330
5
100
AcDbSymbolTableRecord
100
AcDbLinetypeTableRecord
  2
ByLayer
 70
     0
  3

 72
    65
 73
     0
 40
0.0
  0
LTYPE
  5
16
330
5
100
AcDbSymbolTableRecord
100
AcDbLinetypeTableRecord
  2
Continuous
 70
     0
  3
Solid line
 72
    65
 73
     0
 40
0.0
  0
ENDTAB
  0
TABLE
  2
LAYER
  5
2
330
0
100
AcDbSymbolTable
 70
     2
  0
LAYER
  5
10
330
2
100
AcDbSymbolTableRecord
100
AcDbLayerTableRecord
  2
0
 70
     0
 62
     7
  6
Continuous
370
    -3
390
F
  0
LAYER
  5
3B
330
2
100
AcDbSymbolTableRecord
100
AcDbLayerTableRecord
  2
Ebene 9
 70
     0
 62
     7
  6
Continuous
370
    -3
390
F
  0
ENDTAB
  0
TABLE
  2
STYLE
  5
3
330
0
100
AcDbSymbolTable
 70
     1
  0
STYLE
  5
11
330
3
100
AcDbSymbolTableRecord
100
AcDbTextStyleTableRecord
  2
Standard
 70
     0
 40
0.0
 41
1.0
 50
0.0
 71
     0
 42
0.2
  3
txt
  4

  0
ENDTAB
  0
TABLE
  2
VIEW
  5
6
330
0
100
AcDbSymbolTable
 70
     0
  0
ENDTAB
  0
TABLE
  2
UCS
  5
7
330
0
100
AcDbSymbolTable
 70
     0
  0
ENDTAB
  0
TABLE
  2
APPID
  5
9
330
0
100
AcDbSymbolTable
 70
     1
  0
APPID
  5
12
330
9
100
AcDbSymbolTableRecord
100
AcDbRegAppTableRecord
  2
ACAD
 70
     0
  0
ENDTAB
  0
TABLE
  2
DIMSTYLE
  5
A
330
0
100
AcDbSymbolTable
 70
     1
100
AcDbDimStyleTable
  0
DIMSTYLE
105
27
330
A
100
AcDbSymbolTableRecord
100
AcDbDimStyleTableRecord
  2
Standard
 70
     0
340
11
  0
ENDTAB
  0
TABLE
  2
BLOCK_RECORD
  5
1
330
0
100
AcDbSymbolTable
 70
     7
  0
BLOCK_RECORD
  5
1F
330
1
100
AcDbSymbolTableRecord
100
AcDbBlockTableRecord
  2
*Model_Space
340
22
  0
BLOCK_RECORD
  5
1B
330
1
100
AcDbSymbolTableRecord
100
AcDbBlockTableRecord
  2
*Paper_Space
340
1E
  0
BLOCK_RECORD
  5
23
330
1
100
AcDbSymbolTableRecord
100
AcDbBlockTableRecord
  2
*Paper_Space0
340
26
  0
BLOCK_RECORD
  5
3C
330
1
100
AcDbSymbolTableRecord
100
AcDbBlockTableRecord
  2
block 2
340
0
102
{BLKREFS
331
3D
102
}
  0
BLOCK_RECORD
  5
40
330
1
100
AcDbSymbolTableRecord
100
AcDbBlockTableRecord
  2
block 3
340
0
102
{BLKREFS
331
41
102
}
  0
BLOCK_RECORD
  5
B9
330
1
100
AcDbSymbolTableRecord
100
AcDbBlockTableRecord
  2
block 4
340
0
102
{BLKREFS
331
BA
102
}
  0
BLOCK_RECORD
  5
132
330
1
100
AcDbSymbolTableRecord
100
AcDbBlockTableRecord
  2
block 5
340
0
102
{BLKREFS
331
133
102
}
  0
BLOCK_RECORD
  5
1AF
330
1
100
AcDbSymbolTableRecord
100
AcDbBlockTableRecord
  2
block 6
340
0
102
{BLKREFS
331
1B0
102
}
  0
BLOCK_RECORD
  5
1B9
330
1
100
AcDbSymbolTableRecord
100
AcDbBlockTableRecord
  2
block 7
340
0
102
{BLKREFS
331
1BA
102
}
  0
ENDTAB
  0
ENDSEC
  0
SECTION
  2
BLOCKS
  0
BLOCK
  5
20
330
1F
100
AcDbEntity
  8
0
100
AcDbBlockBegin
  2
*Model_Space
 70
     0
 71
     0
 10
0.0
 20
0.0
 30
0.0
  3
*Model_Space
  1

  0
ENDBLK
  5
21
330
1F
100
AcDbEntity
  8
0
100
AcDbBlockEnd
  0
BLOCK
  5
1C
330
1B
100
AcDbEntity
 67
     1
  8
0
100
AcDbBlockBegin
  2
*Paper_Space
 70
     0
 71
     0
 10
0.0
 20
0.0
 30
0.0
  3
*Paper_Space
  1

  0
ENDBLK
  5
1D
330
1B
100
AcDbEntity
 67
     1
  8
0
100
AcDbBlockEnd
  0
BLOCK
  5
24
330
23
100
AcDbEntity
  8
0
100
AcDbBlockBegin
  2
*Paper_Space0
 70
     0
 71
     0
 10
0.0
 20
0.0
 30
0.0
  3
*Paper_Space0
  1

  0
ENDBLK
  5
25
330
23
100
AcDbEntity
  8
0
100
AcDbBlockEnd
  0
BLOCK
  5
3E
330
3C
100
AcDbEntity
  8
0
100
AcDbBlockBegin
  2
block 2
 70
     0
 71
     0
 10
0.0
 20
0.0
 30
0.0
  3
block 2
  1

  0
INSERT
  5
41
330
3C
100
AcDbEntity
  8
Ebene 9
100
AcDbBlockReference
  2
block 3
 10
0.0
 20
0.0
 30
0.0
  0
INSERT
  5
BA
330
3C
100
AcDbEntity
  8
Ebene 9
100
AcDbBlockReference
  2
block 4
 10
0.0
 20
0.0
 30
0.0
  0
INSERT
  5
133
330
3C
100
AcDbEntity
  8
Ebene 9
100
AcDbBlockReference
  2
block 5
 10
0.0
 20
0.0
 30
0.0
  0
SPLINE
  5
1AB
330
3C
100
AcDbEntity
  8
Ebene 9
 62
   250
420
  2301728
370
     9
100
AcDbSpline
210
0.0
220
0.0
230
1.0
 70
    11
 71
     3
 72
   530
 73
   526
 74
     0
 42
0.0000000001
 43
0.0000000001
 40
0.0
 40
0.0
 40
0.0
 40
0.0
 40
1.0
 40
1.0
 40
1.0
 40
2.0
 40
2.0
 40
2.0
 40
3.0
 40
3.0
 40
3.0
 40
4.0
 40
4.0
 40
4.0
 40
5.0
 40
5.0
 40
5.0
 40
6.0
 40
6.0
 40
6.0
 40
7.0
 40
7.0
 40
7.0
 40
8.0
 40
8.0
 40
8.0
 40
9.0
 40
9.0
 40
9.0
 40
10.0
 40
10.0
 40
10.0
 40
11.0
 40
11.0
 40
11.0
 40
12.0
 40
12.0
 40
12.0
 40
13.0
 40
13.0
 40
13.0
 40
14.0
 40
14.0
 40
14.0
 40
15.0
 40
15.0
 40
15.0
 40
16.0
 40
16.0
 40
16.0
 40
17.0
 40
17.0
 40
17.0
 40
18.0
 40
18.0
 40
18.0
 40
19.0
 40
19.0
 40
19.0
 40
20.0
 40
20.0
 40
20.0
 40
21.0
 40
21.0
 40
21.0
 40
22.0
 40
22.0
 40
22.0
 40
23.0
 40
23.0
 40
23.0
 40
24.0
 40
24.0
 40
24.0
 40
25.0
 40
25.0
 40
25.0
 40
26.0
 40
26.0
 40
26.0
 40
27.0
 40
27.0
 40
27.0
 40
28.0
 40
28.0
 40
28.0
 40
29.0
 40
29.0
 40
29.0
 40
30.0
 40
30.0
 40
30.0
 40
31.0
 40
31.0
 40
31.0
 40
32.0
 40
32.0
 40
32.0
 40
33.0
 40
33.0
 40
33.0
 40
34.0
 40
34.0
 40
34.0
 40
35.0
 40
35.0
 40
35.0
 40
36.0
 40
36.0
 40
36.0
 40
37.0
 40
37.0
 40
37.0
 40
38.0
 40
38.0
 40
38.0
 40
39.0
 40
39.0
 40
39.0
 40
40.0
 40
40.0
 40
40.0
 40
41.0
 40
41.0
 40
41.0
 40
42.0
 40
42.0
 40
42.0
 40
43.0
 40
43.0
 40
43.0
 40
44.0
 40
44.0
 40
44.0
 40
45.0
 40
45.0
 40
45.0
 40
46.0
 40
46.0
 40
46.0
 40
47.0
 40
47.0
 40
47.0
 40
48.0
 40
48.0
 40
48.0
 40
49.0
 40
49.0
 40
49.0
 40
50.0
 40
50.0
 40
50.0
 40
51.0
 40
51.0
 40
51.0
 40
52.0
 40
52.0
 40
52.0
 40
53.0
 40
53.0
 40
53.0
 40
54.0
 40
54.0
 40
54.0
 40
55.0
 40
55.0
 40
55.0
 40
56.0
 40
56.0
 40
56.0
 40
57.0
 40
57.0
 40
57.0
 40
58.0
 40
58.0
 40
58.0
 40
59.0
 40
59.0
 40
59.0
 40
60.0
 40
60.0
 40
60.0
 40
61.0
 40
61.0
 40
61.0
 40
62.0
 40
62.0
 40
62.0
 40
63.0
 40
63.0
 40
63.0
 40
64.0
 40
64.0
 40
64.0
 40
65.0
 40
65.0
 40
65.0
 40
66.0
 40
66.0
 40
66.0
 40
67.0
 40
67.0
 40
67.0
 40
68.0
 40
68.0
 40
68.0
 40
69.0
 40
69.0
 40
69.0
 40
70.0
 40
70.0
 40
70.0
 40
71.0
 40
71.0
 40
71.0
 40
72.0
 40
72.0
 40
72.0
 40
73.0
 40
73.0
 40
73.0
 40
74.0
 40
74.0
 40
74.0
 40
75.0
 40
75.0
 40
75.0
 40
76.0
 40
76.0
 40
76.0
 40
77.0
 40
77.0
 40
77.0
 40
78.0
 40
78.0
 40
78.0
 40
79.0
 40
79.0
 40
79.0
 40
80.0
 40
80.0
 40
80.0
 40
81.0
 40
81.0
 40
81.0
 40
82.0
 40
82.0
 40
82.0
 40
83.0
 40
83.0
 40
83.0
 40
84.0
 40
84.0
 40
84.0
 40
85.0
 40
85.0
 40
85.0
 40
86.0
 40
86.0
 40
86.0
 40
87.0
 40
87.0
 40
87.0
 40
88.0
 40
88.0
 40
88.0
 40
89.0
 40
89.0
 40
89.0
 40
90.0
 40
90.0
 40
90.0
 40
91.0
 40
91.0
 40
91.0
 40
92.0
 40
92.0
 40
92.0
 40
93.0
 40
93.0
 40
93.0
 40
94.0
 40
94.0
 40
94.0
 40
95.0
 40
95.0
 40
95.0
 40
96.0
 40
96.0
 40
96.0
 40
97.0
 40
97.0
 40
97.0
 40
98.0
 40
98.0
 40
98.0
 40
99.0
 40
99.0
 40
99.0
 40
100.0
 40
100.0
 40
100.0
 40
101.0
 40
101.0
 40
101.0
 40
102.0
 40
102.0
 40
102.0
 40
103.0
 40
103.0
 40
103.0
 40
104.0
 40
104.0
 40
104.0
 40
105.0
 40
105.0
 40
105.0
 40
106.0
 40
106.0
 40
106.0
 40
107.0
 40
107.0
 40
107.0
 40
108.0
 40
108.0
 40
108.0
 40
109.0
 40
109.0
 40
109.0
 40
110.0
 40
110.0
 40
110.0
 40
111.0
 40
111.0
 40
111.0
 40
112.0
 40
112.0
 40
112.0
 40
113.0
 40
113.0
 40
113.0
 40
114.0
 40
114.0
 40
114.0
 40
115.0
 40
115.0
 40
115.0
 40
116.0
 40
116.0
 40
116.0
 40
117.0
 40
117.0
 40
117.0
 40
118.0
 40
118.0
 40
118.0
 40
119.0
 40
119.0
 40
119.0
 40
120.0
 40
120.0
 40
120.0
 40
121.0
 40
121.0
 40
121.0
 40
122.0
 40
122.0
 40
122.0
 40
123.0
 40
123.0
 40
123.0
 40
124.0
 40
124.0
 40
124.0
 40
125.0
 40
125.0
 40
125.0
 40
126.0
 40
126.0
 40
126.0
 40
127.0
 40
127.0
 40
127.0
 40
128.0
 40
128.0
 40
128.0
 40
129.0
 40
129.0
 40
129.0
 40
130.0
 40
130.0
 40
130.0
 40
131.0
 40
131.0
 40
131.0
 40
132.0
 40
132.0
 40
132.0
 40
133.0
 40
133.0
 40
133.0
 40
134.0
 40
134.0
 40
134.0
 40
135.0
 40
135.0
 40
135.0
 40
136.0
 40
136.0
 40
136.0
 40
137.0
 40
137.0
 40
137.0
 40
138.0
 40
138.0
 40
138.0
 40
139.0
 40
139.0
 40
139.0
 40
140.0
 40
140.0
 40
140.0
 40
141.0
 40
141.0
 40
141.0
 40
142.0
 40
142.0
 40
142.0
 40
143.0
 40
143.0
 40
143.0
 40
144.0
 40
144.0
 40
144.0
 40
145.0
 40
145.0
 40
145.0
 40
146.0
 40
146.0
 40
146.0
 40
147.0
 40
147.0
 40
147.0
 40
148.0
 40
148.0
 40
148.0
 40
149.0
 40
149.0
 40
149.0
 40
150.0
 40
150.0
 40
150.0
 40
151.0
 40
151.0
 40
151.0
 40
152.0
 40
152.0
 40
152.0
 40
153.0
 40
153.0
 40
153.0
 40
154.0
 40
154.0
 40
154.0
 40
155.0
 40
155.0
 40
155.0
 40
156.0
 40
156.0
 40
156.0
 40
157.0
 40
157.0
 40
157.0
 40
158.0
 40
158.0
 40
158.0
 40
159.0
 40
159.0
 40
159.0
 40
160.0
 40
160.0
 40
160.0
 40
161.0
 40
161.0
 40
161.0
 40
162.0
 40
162.0
 40
162.0
 40
163.0
 40
163.0
 40
163.0
 40
164.0
 40
164.0
 40
164.0
 40
165.0
 40
165.0
 40
165.0
 40
166.0
 40
166.0
 40
166.0
 40
167.0
 40
167.0
 40
167.0
 40
168.0
 40
168.0
 40
168.0
 40
169.0
 40
169.0
 40
169.0
 40
170.0
 40
170.0
 40
170.0
 40
171.0
 40
171.0
 40
171.0
 40
172.0
 40
172.0
 40
172.0
 40
173.0
 40
173.0
 40
173.0
 40
174.0
 40
174.0
 40
174.0
 40
175.0
 40
175.0
 40
175.0
 40
175.0
 10
163.9115501478528
 20
143.7790878698763
 30
0.0
 10
163.8650413281203
 20
143.8338649242279
 30
0.0
 10
163.8075081955624
 20
143.8600476671884
 30
0.0
 10
163.7389507501789
 20
143.857291588982
 30
0.0
 10
163.6697042852439
 20
143.8538464912241
 30
0.0
 10
163.5977017421025
 20
143.8276637482635
 30
0.0
 10
163.5222541012031
 20
143.7756427721183
 30
0.0
 10
163.4478399896312
 20
143.7239663057489
 30
0.0
 10
163.3934074450554
 20
143.6399059204547
 30
0.0
 10
163.3593009772515
 20
143.5238061260113
 30
0.0
 10
163.3131366672949
 20
143.3567188847502
 30
0.0
 10
163.2449237316872
 20
143.1379551771196
 30
0.0
 10
163.1532841313254
 20
142.8671704933438
 30
0.0
 10
163.0619890407395
 20
142.5950077704649
 30
0.0
 10
162.959669637328
 20
142.3249121062407
 30
0.0
 10
162.8459814113153
 20
142.0551609517923
 30
0.0
 10
162.7322931853025
 20
141.7850652875681
 30
0.0
 10
162.6206720179446
 20
141.5470090324929
 30
0.0
 10
162.5124959483446
 20
141.3434037549974
 30
0.0
 10
162.403630859193
 20
141.1384204383987
 30
0.0
 10
162.3147473370376
 20
141.0261102514891
 30
0.0
 10
162.2458453818783
 20
141.0075067235961
 30
0.0
 10
162.1876232297688
 20
140.9920037836853
 30
0.0
 10
162.1548948010681
 20
141.1353198504165
 30
0.0
 10
162.1473155860006
 20
141.4371104140139
 30
0.0
 10
162.1393918611573
 20
141.7392454873872
 30
0.0
 10
162.1486936251038
 20
142.0837552631833
 30
0.0
 10
162.1748763680643
 20
142.4689171925235
 30
0.0
 10
162.2014036208006
 20
142.8540791218636
 30
0.0
 10
162.2368881277076
 20
143.230283797033
 30
0.0
 10
162.2813298887853
 20
143.5975312180317
 30
0.0
 10
162.3254271400872
 20
143.9644341292546
 30
0.0
 10
162.3643567447522
 20
144.2062799918635
 30
0.0
 10
162.3991522321076
 20
144.3247913547374
 30
0.0
 10
162.4563408548898
 20
144.5094485945642
 30
0.0
 10
162.4349812487904
 20
144.6334721138508
 30
0.0
 10
162.3357624333611
 20
144.7013405396826
 30
0.0
 10
162.2355100886045
 20
144.7678309264113
 30
0.0
 10
162.1042518640261
 20
144.7943581791476
 30
0.0
 10
161.9406097205229
 20
144.7791997490126
 30
0.0
 10
161.7769675770197
 20
144.763352299326
 30
0.0
 10
161.6081577868796
 20
144.7096087743018
 30
0.0
 10
161.4331468207752
 20
144.6159021152852
 30
0.0
 10
161.2577913448949
 20
144.5228844758202
 30
0.0
 10
161.124121551886
 20
144.4040286031705
 30
0.0
 10
161.0314484221968
 20
144.2614015559909
 30
0.0
 10
160.9387752925077
 20
144.1049941177795
 30
0.0
 10
160.8092396168083
 20
143.8548800205515
 30
0.0
 10
160.642496885323
 20
143.5065806372215
 30
0.0
 10
160.4747206245102
 20
143.1582812538916
 30
0.0
 10
160.3227918133841
 20
142.7986130479604
 30
0.0
 10
160.1849879030657
 20
142.4282650389795
 30
0.0
 10
160.2146157437841
 20
143.0625075362203
 30
0.0
 10
160.2463106431574
 20
143.7029512094254
 30
0.0
 10
160.2817951500644
 20
144.3478735097158
 30
0.0
 10
160.3169351471956
 20
144.9927958100062
 30
0.0
 10
160.3555202420848
 20
145.5825965461692
 30
0.0
 10
160.3975504347319
 20
146.1179647377565
 30
0.0
 10
160.4399251371548
 20
146.6533329293437
 30
0.0
 10
160.4740316049586
 20
147.1063632845157
 30
0.0
 10
160.5002143479192
 20
147.4784338423756
 30
0.0
 10
160.5260525811039
 20
147.8508489100112
 30
0.0
 10
160.5505127751854
 20
148.0830484988978
 30
0.0
 10
160.5732504203879
 20
148.1764106481386
 30
0.0
 10
160.607012378416
 20
148.388628670029
 30
0.0
 10
160.5549914022707
 20
148.5588164992723
 30
0.0
 10
160.4182210212797
 20
148.6914527629539
 30
0.0
 10
160.2814506402886
 20
148.8234000070838
 30
0.0
 10
160.1246986923013
 20
148.8967805893284
 30
0.0
 10
159.9472761577663
 20
148.9102164705844
 30
0.0
 10
159.7705426427829
 20
148.9233078420647
 30
0.0
 10
159.6055224601765
 20
148.8671527486099
 30
0.0
 10
159.4539381588262
 20
148.7365835435832
 30
0.0
 10
159.3016648379243
 20
148.6073923776596
 30
0.0
 10
159.2272507263523
 20
148.3779488669794
 30
0.0
 10
159.2303513143345
 20
148.0499755604214
 30
0.0
 10
159.2317293534377
 20
147.8994247883985
 30
0.0
 10
159.2255281774733
 20
147.6231279482099
 30
0.0
 10
159.2114032766657
 20
147.2193624909768
 30
0.0
 10
159.1976228856338
 20
146.8155970337437
 30
0.0
 10
159.1814309261714
 20
146.3391400138176
 30
0.0
 10
159.1624828885026
 20
145.7910249605259
 30
0.0
 10
159.1445683801612
 20
145.241531868131
 30
0.0
 10
159.1207972056313
 20
144.6475970146584
 30
0.0
 10
159.0915138746886
 20
144.0071533414533
 30
0.0
 10
159.0729103467956
 20
143.6033878842202
 30
0.0
 10
159.0543068189026
 20
143.2044455638483
 30
0.0
 10
159.0353587812338
 20
142.8072257923553
 30
0.0
 10
159.0343252519064
 20
142.8030916750457
 30
0.0
 10
159.0329472128033
 20
142.7999910870636
 30
0.0
 10
159.0319136834759
 20
142.7955124599782
 30
0.0
 10
158.7335682176364
 20
141.7695623476572
 30
0.0
 10
158.369076874844
 20
140.8976081051171
 30
0.0
 10
157.9349945573409
 20
140.191363064735
 30
0.0
 10
157.9429182821842
 20
140.6271679311171
 30
0.0
 10
157.9508420070275
 20
141.1050029901464
 30
0.0
 10
157.958421222095
 20
141.624523732047
 30
0.0
 10
157.9656559273867
 20
142.1430109446203
 30
0.0
 10
157.9959727876568
 20
142.7496926597973
 30
0.0
 10
158.0493718029052
 20
143.4394012309413
 30
0.0
 10
158.0597070961791
 20
143.5944306300495
 30
0.0
 10
158.0349023923218
 20
143.7212102275425
 30
0.0
 10
157.9749576913332
 20
143.8214625722992
 30
0.0
 10
157.9146684805689
 20
143.9213704072801
 30
0.0
 10
157.8343977028084
 20
143.9916504015425
 30
0.0
 10
157.7331118287243
 20
144.0340251039655
 30
0.0
 10
157.632170464416
 20
144.075366277061
 30
0.0
 10
157.5250279241434
 20
144.0953478440572
 30
0.0
 10
157.4123732274581
 20
144.0950033342814
 30
0.0
 10
157.3000630405485
 20
144.093969804954
 30
0.0
 10
157.1901644220696
 20
144.0760552966126
 30
0.0
 10
157.0837109013485
 20
144.0409152994814
 30
0.0
 10
156.9748458121969
 20
144.3175566494457
 30
0.0
 10
156.8008683754199
 20
144.5483781992291
 30
0.0
 10
156.5624676105689
 20
144.7375140661412
 30
0.0
 10
156.3592068428492
 20
144.8987446412139
 30
0.0
 10
156.1511229382683
 20
144.9759148309922
 30
0.0
 10
155.9382158968263
 20
144.9679911061489
 30
0.0
 10
155.5813037691015
 20
144.9545552248928
 30
0.0
 10
155.2681443829027
 20
144.797114257354
 30
0.0
 10
154.9956371502479
 20
144.4925676155501
 30
0.0
 10
154.723474427369
 20
144.1873319541947
 30
0.0
 10
154.5043662099626
 20
143.804926103061
 30
0.0
 10
154.3393460273562
 20
143.3432830034942
 30
0.0
 10
154.2480509367703
 20
143.0886902791808
 30
0.0
 10
154.1757038838531
 20
142.8206616736113
 30
0.0
 10
154.1185152610709
 20
142.5429867943196
 30
0.0
 10
154.1071464384696
 20
142.5092248362916
 30
0.0
 10
154.0978446745231
 20
142.473051309833
 30
0.0
 10
154.0909544790072
 20
142.4320546465133
 30
0.0
 10
154.0678723240289
 20
142.2715130909922
 30
0.0
 10
154.0148178185563
 20
142.0375909532267
 30
0.0
 10
153.9314464528136
 20
141.7292547038891
 30
0.0
 10
153.8484195968467
 20
141.4222964936547
 30
0.0
 10
153.7591915649155
 20
141.1149937736445
 30
0.0
 10
153.66376235702
 20
140.806657524307
 30
0.0
 10
153.5683331491244
 20
140.499010294521
 30
0.0
 10
153.4694588434709
 20
140.2306371791757
 30
0.0
 10
153.3681729693868
 20
140.0036052369261
 30
0.0
 10
153.2661980757512
 20
139.7762287849006
 30
0.0
 10
153.1793816122506
 20
139.6625405588879
 30
0.0
 10
153.1070345593334
 20
139.6618515393363
 30
0.0
 10
152.9988584897334
 20
139.6608180100089
 30
0.0
 10
152.9296120247983
 20
139.7920762345872
 30
0.0
 10
152.8999841840799
 20
140.0545926837439
 30
0.0
 10
152.869322814034
 20
140.316420113349
 30
0.0
 10
152.8603655598633
 20
140.6299240093235
 30
0.0
 10
152.872767911792
 20
140.9947598618917
 30
0.0
 10
152.884481244169
 20
141.359251204684
 30
0.0
 10
152.9113530066811
 20
141.7385564678356
 30
0.0
 10
152.9533831993283
 20
142.1319866317948
 30
0.0
 10
152.9947243724238
 20
142.5261058153056
 30
0.0
 10
153.0395106432773
 20
142.853390102312
 30
0.0
 10
153.0870529923372
 20
143.1162510612445
 30
0.0
 10
153.09911083449
 20
143.2478537955986
 30
0.0
 10
153.0419222117079
 20
143.3711882953336
 30
0.0
 10
152.9168651630939
 20
143.4876325995527
 30
0.0
 10
152.7918081144799
 20
143.603732393996
 30
0.0
 10
152.6453914597665
 20
143.6912378770483
 30
0.0
 10
152.4786487282811
 20
143.7504935584852
 30
0.0
 10
152.3117337419079
 20
143.8094047301464
 30
0.0
 10
152.1539482645933
 20
143.8145723767833
 30
0.0
 10
152.0047755316735
 20
143.7656519886202
 30
0.0
 10
151.8559473085296
 20
143.7167316004572
 30
0.0
 10
151.7751597661054
 20
143.5834063172241
 30
0.0
 10
151.7629296690646
 20
143.3656761389209
 30
0.0
 10
151.7146983004531
 20
143.2058236029515
 30
0.0
 10
151.660782520541
 20
142.9960171494916
 30
0.0
 10
151.6001488000009
 20
142.7352232492139
 30
0.0
 10
151.5398595892366
 20
142.4751183684878
 30
0.0
 10
151.4735414573958
 20
142.2001995674024
 30
0.0
 10
151.4013666593665
 20
141.911844885061
 30
0.0
 10
151.3286750966735
 20
141.6234902027197
 30
0.0
 10
151.2525384362226
 20
141.3347910106025
 30
0.0
 10
151.1739902073411
 20
141.0474698575885
 30
0.0
 10
151.0952697235716
 20
140.7598041947987
 30
0.0
 10
151.0194775728965
 20
140.5021108825031
 30
0.0
 10
150.9467860102035
 20
140.2737009011503
 30
0.0
 10
150.8740944475105
 20
140.0449464100216
 30
0.0
 10
150.8015751397054
 20
139.8640787777286
 30
0.0
 10
150.7287113221245
 20
139.7307534944955
 30
0.0
 10
150.6563642692073
 20
139.5974282112624
 30
0.0
 10
150.5898738824787
 20
139.547474293772
 30
0.0
 10
150.5302736912659
 20
139.5802027224726
 30
0.0
 10
150.4580988932366
 20
139.6129311511732
 30
0.0
 10
150.4291600720697
 20
139.7776068240038
 30
0.0
 10
150.4425959533258
 20
140.0735407214127
 30
0.0
 10
150.455687324806
 20
140.3691301090458
 30
0.0
 10
150.4873822241793
 20
140.7325879225108
 30
0.0
 10
150.5371638867818
 20
141.1639141618076
 30
0.0
 10
150.5864287847207
 20
141.5952404011044
 30
0.0
 10
150.6368994668748
 20
142.0627401668598
 30
0.0
 10
150.6866811294774
 20
142.5684805177285
 30
0.0
 10
150.736290537192
 20
143.0728428294941
 30
0.0
 10
150.7740143576417
 20
143.556534554712
 30
0.0
 10
150.7998525908264
 20
144.0202447129336
 30
0.0
 10
150.8120826878672
 20
144.1794082293515
 30
0.0
 10
150.7473148500175
 20
144.3006756704317
 30
0.0
 10
150.6050323126137
 20
144.3843915459502
 30
0.0
 10
150.4629220300978
 20
144.4684519312444
 30
0.0
 10
150.302035964801
 20
144.5022138892724
 30
0.0
 10
150.1239244107143
 20
144.4873999689132
 30
0.0
 10
149.9459851115156
 20
144.4718970290024
 30
0.0
 10
149.7814816935729
 20
144.4064401716011
 30
0.0
 10
149.632653470429
 20
144.2910293967094
 30
0.0
 10
149.4831362277335
 20
144.1756186218177
 30
0.0
 10
149.4082053514978
 20
143.9968180481795
 30
0.0
 10
149.4063105477309
 20
143.7539386562432
 30
0.0
 10
149.3920133920354
 20
143.353618296768
 30
0.0
 10
149.3684144723933
 20
142.9467522515527
 30
0.0
 10
149.3360305534685
 20
142.5336850303731
 30
0.0
 10
149.3336189850379
 20
142.506813267861
 30
0.0
 10
149.3324132008226
 20
142.4809750346763
 30
0.0
 10
149.3303461421679
 20
142.45444778194
 30
0.0
 10
149.3012350661131
 20
142.3045860294687
 30
0.0
 10
149.25231467795
 20
142.1075264377133
 30
0.0
 10
149.179623115257
 20
141.8577568502611
 30
0.0
 10
149.0941846908596
 20
141.5645790310585
 30
0.0
 10
148.9996167574035
 20
141.273123760735
 30
0.0
 10
148.8964360795526
 20
140.9830465295146
 30
0.0
 10
148.79256638215
 20
140.6936583178458
 30
0.0
 10
148.6893857042991
 20
140.4442332401694
 30
0.0
 10
148.5868940459997
 20
140.2358048258127
 30
0.0
 10
148.4837133681488
 20
140.027376411456
 30
0.0
 10
148.3963801399844
 20
139.9285021058025
 30
0.0
 10
148.3248943615068
 20
139.9371148501974
 30
0.0
 10
148.2296374084991
 20
139.9491726923503
 30
0.0
 10
148.1681424135195
 20
140.0845650342382
 30
0.0
 10
148.1404093765679
 20
140.3422583465337
 30
0.0
 10
148.1126763396163
 20
140.5996071490534
 30
0.0
 10
148.1063029087641
 20
140.9031202615299
 30
0.0
 10
148.1211168291233
 20
141.254520232842
 30
0.0
 10
148.1357584945947
 20
141.6062647139298
 30
0.0
 10
148.165558590201
 20
141.9697225273948
 30
0.0
 10
148.2103448610545
 20
142.3469607318916
 30
0.0
 10
148.2547866221322
 20
142.7241989363884
 30
0.0
 10
148.3018122065284
 20
143.0380473421387
 30
0.0
 10
148.351421614243
 20
143.2891949686941
 30
0.0
 10
148.3765708278762
 20
143.4710961303145
 30
0.0
 10
148.348148771373
 20
143.6323267053871
 30
0.0
 10
148.2664999545093
 20
143.772886693912
 30
0.0
 10
148.1839898632061
 20
143.9127576628852
 30
0.0
 10
148.0782253620367
 20
144.0192111836062
 30
0.0
 10
147.9486896863373
 20
144.0919027462992
 30
0.0
 10
147.8189817557501
 20
144.164938818768
 30
0.0
 10
147.6827281394227
 20
144.1990452865718
 30
0.0
 10
147.5404456020188
 20
144.196978227917
 30
0.0
 10
147.3988520841666
 20
144.1938776399349
 30
0.0
 10
147.2794794468533
 20
144.1342774487221
 30
0.0
 10
147.1838779840698
 20
144.017833144503
 30
0.0
 10
147.1025736769819
 20
144.1914660715043
 30
0.0
 10
147.0007710382342
 20
144.3523521368011
 30
0.0
 10
146.877608793387
 20
144.5011803599451
 30
0.0
 10
146.7553078229794
 20
144.6493195635374
 30
0.0
 10
146.6114749915845
 20
144.7506054376215
 30
0.0
 10
146.446627063866
 20
144.8057270017489
 30
0.0
 10
146.0111667072597
 20
144.9383632654304
 30
0.0
 10
145.6392684042877
 20
144.8928879750253
 30
0.0
 10
145.3314489196138
 20
144.6786028944801
 30
0.0
 10
145.023457180052
 20
144.4639733041591
 30
0.0
 10
144.7771326903578
 20
144.16149372101
 30
0.0
 10
144.5923031956432
 20
143.7687525766024
 30
0.0
 10
144.5158220254164
 20
143.6078665113056
 30
0.0
 10
144.4507096777909
 20
143.4363006429591
 30
0.0
 10
144.3954158587756
 20
143.2564665399935
 30
0.0
 10
144.3756065466674
 20
143.2247716406202
 30
0.0
 10
144.3597590969807
 20
143.1872200750585
 30
0.0
 10
144.3497683134827
 20
143.1410557651018
 30
0.0
 10
144.3137670419119
 20
143.0432149887757
 30
0.0
 10
144.2421090085464
 20
142.8309969668852
 30
0.0
 10
144.1341051938342
 20
142.5092248362916
 30
0.0
 10
144.0264458888979
 20
142.1871081959222
 30
0.0
 10
143.9103460944546
 20
141.8608574382432
 30
0.0
 10
143.7858058105043
 20
141.5321951121337
 30
0.0
 10
143.6616100363298
 20
141.2028437664725
 30
0.0
 10
143.537931026819
 20
140.9169006525617
 30
0.0
 10
143.4147687819718
 20
140.6736767508496
 30
0.0
 10
143.2917787920126
 20
140.4294193198101
 30
0.0
 10
143.1961773292292
 20
140.3208987404344
 30
0.0
 10
143.127103119182
 20
140.3419138367579
 30
0.0
 10
143.0118645991782
 20
140.3767093241133
 30
0.0
 10
142.9355556838394
 20
140.5658451910254
 30
0.0
 10
142.8971428438381
 20
140.9058763397362
 30
0.0
 10
142.8585577489489
 20
141.2462519982228
 30
0.0
 10
142.843227063926
 20
141.6710325517795
 30
0.0
 10
142.8518398083209
 20
142.1829740786126
 30
0.0
 10
142.8597635331642
 20
142.6945710956699
 30
0.0
 10
142.8830179430305
 20
143.2502653640292
 30
0.0
 10
142.9212585281438
 20
143.8514349227935
 30
0.0
 10
142.9591546034814
 20
144.4526044815578
 30
0.0
 10
143.0027350901196
 20
145.0334479635501
 30
0.0
 10
143.0530335173859
 20
145.5946543883221
 30
0.0
 10
143.1022984153247
 20
146.1558608130941
 30
0.0
 10
143.1551806659094
 20
146.6540219488953
 30
0.0
 10
143.2108189947005
 20
147.0891377957259
 30
0.0
 10
143.2661128137158
 20
147.5239091327807
 30
0.0
 10
143.3060759477081
 20
147.817431461759
 30
0.0
 10
143.3308806515655
 20
147.9683267435577
 30
0.0
 10
143.3670541780241
 20
148.1677979037437
 30
0.0
 10
143.318133789861
 20
148.3335071059016
 30
0.0
 10
143.1836027224126
 20
148.4602867033946
 30
0.0
 10
143.0488994000763
 20
148.5874108106634
 30
0.0
 10
142.8899081385464
 20
148.6566572755985
 30
0.0
 10
142.7076624671502
 20
148.6707821764061
 30
0.0
 10
142.5247277762024
 20
148.684562567438
 30
0.0
 10
142.356434750726
 20
148.6335751206201
 30
0.0
 10
142.2036446651604
 20
148.5219539532621
 30
0.0
 10
142.0498210502674
 20
148.408954746801
 30
0.0
 10
141.9729953702649
 20
148.211206135494
 30
0.0
 10
141.9726508604891
 20
147.9249185118074
 30
0.0
 10
141.9724786056012
 20
147.6620575528749
 30
0.0
 10
141.9481906664076
 20
147.2772401333106
 30
0.0
 10
141.9013373368993
 20
146.7749448801998
 30
0.0
 10
141.8536227329515
 20
146.2723051173132
 30
0.0
 10
141.8067694034432
 20
145.7197114369361
 30
0.0
 10
141.7602605837107
 20
145.1171638390686
 30
0.0
 10
141.7135795090904
 20
144.5142717314253
 30
0.0
 10
141.6818846097171
 20
143.8982882523018
 30
0.0
 10
141.6648313758152
 20
143.2661128137158
 30
0.0
 10
141.6476058870254
 20
142.6329038458024
 30
0.0
 10
141.6679319637974
 20
142.0510268344827
 30
0.0
 10
141.7244315670279
 20
141.5125580549133
 30
0.0
 10
141.7805866604827
 20
140.9737447655681
 30
0.0
 10
141.8854898872127
 20
140.5065895095885
 30
0.0
 10
142.0377632081146
 20
140.1090252283197
 30
0.0
 10
142.1898642741286
 20
139.7114609470509
 30
0.0
 10
142.4184465103693
 20
139.4485999881184
 30
0.0
 10
142.7260937401553
 20
139.3369788207605
 30
0.0
 10
143.0566508700317
 20
139.217778438335
 30
0.0
 10
143.3443165328215
 20
139.2818572566331
 30
0.0
 10
143.5890907285247
 20
139.5367944907223
 30
0.0
 10
143.8335204144521
 20
139.7927652541388
 30
0.0
 10
144.044877161903
 20
140.1262507171095
 30
0.0
 10
144.2229887159897
 20
140.5358728405312
 30
0.0
 10
144.2395251852279
 20
140.5741134256445
 30
0.0
 10
144.254511360475
 20
140.6130430303095
 30
0.0
 10
144.2703588101616
 20
140.6509391056471
 30
0.0
 10
144.3435671375183
 20
140.26060952967
 30
0.0
 10
144.4582888928584
 20
139.8943956379987
 30
0.0
 10
144.6171078995005
 20
139.5540199795121
 30
0.0
 10
144.8115836679374
 20
139.1354406019197
 30
0.0
 10
145.0773729599642
 20
138.8240037646
 30
0.0
 10
145.4163705793476
 20
138.6300447608268
 30
0.0
 10
145.6029226229412
 20
138.5291033965185
 30
0.0
 10
145.8206528012444
 20
138.496030458042
 30
0.0
 10
146.0686998398176
 20
138.5342710431554
 30
0.0
 10
146.3289769754316
 20
138.5980053516777
 30
0.0
 10
146.5432620559768
 20
138.7489006334764
 30
0.0
 10
146.7115550814533
 20
138.9852343396726
 30
0.0
 10
146.8796758520418
 20
139.2219125556446
 30
0.0
 10
147.0124843706112
 20
139.5006209642637
 30
0.0
 10
147.1104974018253
 20
139.8175699579961
 30
0.0
 10
147.2607036640724
 20
139.4179386180726
 30
0.0
 10
147.5077171733182
 20
139.1309619748344
 30
0.0
 10
147.8518824393386
 20
138.9655972824522
 30
0.0
 10
148.0656507552201
 20
138.862933369265
 30
0.0
 10
148.265294170294
 20
138.8615553301618
 30
0.0
 10
148.4516739589997
 20
138.9649082629006
 30
0.0
 10
148.6370202183781
 20
139.0672276663121
 30
0.0
 10
148.8058300085182
 20
139.2288027511605
 30
0.0
 10
148.9574143098685
 20
139.4468774392395
 30
0.0
 10
149.0552550861946
 20
139.5891599766433
 30
0.0
 10
149.1455166474532
 20
139.7507350614917
 30
0.0
 10
149.2285435034201
 20
139.9264350471477
 30
0.0
 10
149.2357782087118
 20
139.7452229050789
 30
0.0
 10
149.2493863448558
 20
139.5833033104547
 30
0.0
 10
149.2707459509551
 20
139.4461884196879
 30
0.0
 10
149.3057136931984
 20
139.2274247120573
 30
0.0
 10
149.3787497656672
 20
139.0296761007503
 30
0.0
 10
149.4917489721284
 20
138.8536316053185
 30
0.0
 10
149.6047481785895
 20
138.6779316196624
 30
0.0
 10
149.7354896385042
 20
138.5387496702408
 30
0.0
 10
149.8853513909755
 20
138.4388418352599
 30
0.0
 10
150.034868633671
 20
138.3382449807274
 30
0.0
 10
150.1911038169946
 20
138.2920806707707
 30
0.0
 10
150.3530234116188
 20
138.301726944493
 30
0.0
 10
150.5151152611309
 20
138.3103396888879
 30
0.0
 10
150.6572255436468
 20
138.3916439959758
 30
0.0
 10
150.7781484749513
 20
138.5432282973261
 30
0.0
 10
150.971246204285
 20
138.7623365147325
 30
0.0
 10
151.1407450139767
 20
139.0520692361771
 30
0.0
 10
151.2857836295869
 20
139.4089813639019
 30
0.0
 10
151.4311667549729
 20
139.7658934916267
 30
0.0
 10
151.5582908622417
 20
140.1469213036573
 30
0.0
 10
151.6671559513933
 20
140.5510312706662
 30
0.0
 10
151.6664669318417
 20
140.2750789402535
 30
0.0
 10
151.6840369304073
 20
140.027376411456
 30
0.0
 10
151.7195214373143
 20
139.8079236842738
 30
0.0
 10
151.7548336893334
 20
139.5588431163732
 30
0.0
 10
151.8290755460175
 20
139.3421464673974
 30
0.0
 10
151.9432805366939
 20
139.1574892275707
 30
0.0
 10
152.0573132724824
 20
138.9724874779681
 30
0.0
 10
152.1894327715003
 20
138.8312384698917
 30
0.0
 10
152.3401557984111
 20
138.734431222893
 30
0.0
 10
152.4903620606582
 20
138.6376239758943
 30
0.0
 10
152.6469417537576
 20
138.5818133922153
 30
0.0
 10
152.8093781130455
 20
138.5673439816318
 30
0.0
 10
152.9726757467729
 20
138.5532190808242
 30
0.0
 10
153.119436911262
 20
138.5980053516777
 30
0.0
 10
153.2520731749435
 20
138.7013582844166
 30
0.0
 10
153.4687698239193
 20
138.8646559181439
 30
0.0
 10
153.66376235702
 20
139.1247607988701
 30
0.0
 10
153.8370507742454
 20
139.4789168483885
 30
0.0
 10
153.9404037069843
 20
139.6890678116242
 30
0.0
 10
154.033765856225
 20
139.9050754410484
 30
0.0
 10
154.1192042806225
 20
140.1255616975579
 30
0.0
 10
154.2173895667244
 20
139.7576252570076
 30
0.0
 10
154.3727634756085
 20
139.4489444978942
 30
0.0
 10
154.5860150268263
 20
139.2033090277516
 30
0.0
 10
154.8395742218123
 20
138.9121982672038
 30
0.0
 10
155.1892516442454
 20
138.7805955328497
 30
0.0
 10
155.6333247452467
 20
138.8188361179631
 30
0.0
 10
155.8848168815779
 20
138.8401957240624
 30
0.0
 10
156.0911782372798
 20
138.9183994431681
 30
0.0
 10
156.2520643025766
 20
139.0493131579707
 30
0.0
 10
156.4126058580976
 20
139.1802268727732
 30
0.0
 10
156.5400744751422
 20
139.3304331350204
 30
0.0
 10
156.6348146634861
 20
139.4982093958331
 30
0.0
 10
156.6182781942479
 20
139.3035613725083
 30
0.0
 10
156.6017417250097
 20
139.1089133491834
 30
0.0
 10
156.5852052557715
 20
138.9139208160828
 30
0.0
 10
156.322344296839
 20
138.8553541541974
 30
0.0
 10
156.0115964790708
 20
138.7402878890815
 30
0.0
 10
155.6522727829154
 20
138.5718226087172
 30
0.0
 10
155.2922600672084
 20
138.4030128185771
 30
0.0
 10
154.9629087215473
 20
138.1883832282561
 30
0.0
 10
154.6631852166047
 20
137.9234552106688
 30
0.0
 10
154.3631172018862
 20
137.6585271930816
 30
0.0
 10
154.143664474704
 20
137.3474348655376
 30
0.0
 10
154.0058605643856
 20
136.9850105814
 30
0.0
 10
153.8677121442913
 20
136.6232753168141
 30
0.0
 10
153.8897607699423
 20
136.2119306445134
 30
0.0
 10
154.0720064413384
 20
135.7551106818077
 30
0.0
 10
154.1819050598174
 20
135.4843259980319
 30
0.0
 10
154.39722366969
 20
135.2769311130026
 30
0.0
 10
154.7186512905078
 20
135.1422277906663
 30
0.0
 10
155.0397344015499
 20
135.0071799585542
 30
0.0
 10
155.3845886871218
 20
134.994088587074
 30
0.0
 10
155.7525251276721
 20
135.1029536762256
 30
0.0
 10
156.1197725486709
 20
135.212163275153
 30
0.0
 10
156.4797852643779
 20
135.4653779603632
 30
0.0
 10
156.8315297454657
 20
135.856052046116
 30
0.0
 10
157.1829297167778
 20
136.2467261318689
 30
0.0
 10
157.4502693027956
 20
136.8151672619325
 30
0.0
 10
157.635615562174
 20
137.5510401430332
 30
0.0
 10
157.6934932045077
 20
137.8004652207096
 30
0.0
 10
157.742069082895
 20
138.0409330442153
 30
0.0
 10
157.7816877071116
 20
138.2720991037745
 30
0.0
 10
157.8213063313281
 20
138.5039541828854
 30
0.0
 10
157.8526567209256
 20
138.7337422033414
 30
0.0
 10
157.8740163270249
 20
138.9621521846942
 30
0.0
 10
158.2161145343906
 20
139.3945119533184
 30
0.0
 10
158.5406427431905
 20
139.9188558320802
 30
0.0
 10
158.8489789925281
 20
140.5282936254636
 30
0.0
 10
158.8768842843676
 20
140.583415189591
 30
0.0
 10
158.9041005566555
 20
140.6412928319248
 30
0.0
 10
158.9313168289434
 20
140.698481454707
 30
0.0
 10
158.9247711432033
 20
140.581692640712
 30
0.0
 10
158.9185699672389
 20
140.4659373560445
 30
0.0
 10
158.9127133010504
 20
140.3522491300318
 30
0.0
 10
158.8823964407803
 20
139.8024115278611
 30
0.0
 10
158.8569027173714
 20
139.3528262704471
 30
0.0
 10
158.8362321308236
 20
139.0028043382382
 30
0.0
 10
158.8145280149485
 20
138.7919643554509
 30
0.0
 10
158.8662044813179
 20
138.6531269158051
 30
0.0
 10
158.9916060397077
 20
138.589048097507
 30
0.0
 10
159.1159740687701
 20
138.5253137889847
 30
0.0
 10
159.2579120963981
 20
138.5139449663834
 30
0.0
 10
159.4174201225918
 20
138.5563196688064
 30
0.0
 10
159.575894619458
 20
138.5986943712293
 30
0.0
 10
159.723000293723
 20
138.6868888738331
 30
0.0
 10
159.8573591062835
 20
138.8198696472904
 30
0.0
 10
159.9910288992924
 20
138.9521614011962
 30
0.0
 10
160.0571747762453
 20
139.1133919762688
 30
0.0
 10
160.0554522273663
 20
139.3008052943019
 30
0.0
 10
160.0547632078147
 20
139.3679847005822
 30
0.0
 10
160.0540741882631
 20
139.4351641068624
 30
0.0
 10
160.0537296784873
 20
139.5019990033668
 30
0.0
 10
160.0650985010886
 20
139.5178464530535
 30
0.0
 10
160.0709551672771
 20
139.5467852742204
 30
0.0
 10
160.0702661477255
 20
139.5870929179885
 30
0.0
 10
160.0806014409994
 20
139.7507350614917
 30
0.0
 10
160.1308998682657
 20
140.010495432442
 30
0.0
 10
160.2218504490758
 20
140.3646514819605
 30
0.0
 10
160.3124565201102
 20
140.7188075314789
 30
0.0
 10
160.4116753355395
 20
141.0764086787553
 30
0.0
 10
160.5201959149153
 20
141.4364213944623
 30
0.0
 10
160.6283719845153
 20
141.7964341101693
 30
0.0
 10
160.733791975909
 20
142.1202732994177
 30
0.0
 10
160.836800398872
 20
142.4086279817591
 30
0.0
 10
160.939808821835
 20
142.6969826641005
 30
0.0
 10
161.0204241093714
 20
142.8578687293973
 30
0.0
 10
161.0783017517051
 20
142.8940422558559
 30
0.0
 10
161.0445397936771
 20
142.7834546178254
 30
0.0
 10
161.0135339138554
 20
142.6211905134254
 30
0.0
 10
160.985628622016
 20
142.4058719035528
 30
0.0
 10
160.9587568595038
 20
142.190897803456
 30
0.0
 10
160.943253919593
 20
141.9580091950178
 30
0.0
 10
160.939808821835
 20
141.7075505880139
 30
0.0
 10
160.9356747045255
 20
141.4570919810101
 30
0.0
 10
160.9497996053331
 20
141.2035327860241
 30
0.0
 10
160.9811499949306
 20
140.9479065323834
 30
0.0
 10
161.012500384528
 20
140.6919357689668
 30
0.0
 10
161.0703780268618
 20
140.4759281395426
 30
0.0
 10
161.1530603730529
 20
140.3002281538866
 30
0.0
 10
161.2364317387955
 20
140.1252171877821
 30
0.0
 10
161.353909572342
 20
140.0060168053566
 30
0.0
 10
161.5054938736924
 20
139.9436605359375
 30
0.0
 10
161.6574226848185
 20
139.8813042665184
 30
0.0
 10
161.8541377667981
 20
139.9126546561159
 30
0.0
 10
162.0956391196312
 20
140.0339220971962
 30
0.0
 10
162.3147473370376
 20
140.1500218916395
 30
0.0
 10
162.5290324175828
 20
140.370508148149
 30
0.0
 10
162.73987240037
 20
140.6888351809847
 30
0.0
 10
162.9510568929331
 20
141.0068177040445
 30
0.0
 10
163.138814720742
 20
141.3509829700649
 30
0.0
 10
163.3045239229
 20
141.7199529399426
 30
0.0
 10
163.4688550859547
 20
142.0885784000445
 30
0.0
 10
163.608726054928
 20
142.4389448420292
 30
0.0
 10
163.7231033004923
 20
142.7724303049999
 30
0.0
 10
163.8371360362808
 20
143.1059157679706
 30
0.0
 10
163.9115501478528
 20
143.3563743749744
 30
0.0
 10
163.9460011254324
 20
143.5303518117514
 30
0.0
 10
163.9690832804108
 20
143.6416284693336
 30
0.0
 10
163.9573699480337
 20
143.7239663057489
 30
0.0
 10
163.9115501478528
 20
143.7790878698763
 30
0.0
  0
SPLINE
  5
1AC
330
3C
100
AcDbEntity
  8
Ebene 9
 62
   250
420
  2301728
370
     9
100
AcDbSpline
210
0.0
220
0.0
230
1.0
 70
    11
 71
     3
 72
    41
 73
    37
 74
     0
 42
0.0000000001
 43
0.0000000001
 40
0.0
 40
0.0
 40
0.0
 40
0.0
 40
1.0
 40
1.0
 40
1.0
 40
2.0
 40
2.0
 40
2.0
 40
3.0
 40
3.0
 40
3.0
 40
4.0
 40
4.0
 40
4.0
 40
5.0
 40
5.0
 40
5.0
 40
6.0
 40
6.0
 40
6.0
 40
7.0
 40
7.0
 40
7.0
 40
8.0
 40
8.0
 40
8.0
 40
9.0
 40
9.0
 40
9.0
 40
10.0
 40
10.0
 40
10.0
 40
11.0
 40
11.0
 40
11.0
 40
12.0
 40
12.0
 40
12.0
 40
12.0
 10
146.8498757564354
 20
141.4684608036114
 30
0.0
 10
146.7930316434291
 20
141.0547045628802
 30
0.0
 10
146.7122441010049
 20
140.6843565538993
 30
0.0
 10
146.6087189133781
 20
140.3577612864445
 30
0.0
 10
146.5051937257514
 20
140.0311660189898
 30
0.0
 10
146.384098539559
 20
139.7724391773668
 30
0.0
 10
146.2469836487921
 20
139.5812362518
 30
0.0
 10
146.1090074835858
 20
139.3896888164573
 30
0.0
 10
145.9637966130877
 20
139.3256099981592
 30
0.0
 10
145.8113510372979
 20
139.3862437186993
 30
0.0
 10
145.6583886968444
 20
139.4465329294637
 30
0.0
 10
145.5457340001591
 20
139.6074189947605
 30
0.0
 10
145.4720089081387
 20
139.8654568168318
 30
0.0
 10
145.3975947965667
 20
140.1234946389031
 30
0.0
 10
145.3536698001527
 20
140.4239071633974
 30
0.0
 10
145.3390281346813
 20
140.767727919642
 30
0.0
 10
145.3247309789858
 20
141.1122376954382
 30
0.0
 10
145.3397171542329
 20
141.4698388427146
 30
0.0
 10
145.3846756799744
 20
141.8436319494534
 30
0.0
 10
145.429117441052
 20
142.2174250561923
 30
0.0
 10
145.4999141999782
 20
142.5574562049031
 30
0.0
 10
145.5970659567527
 20
142.8661369640164
 30
0.0
 10
145.6938732037514
 20
143.1755067426814
 30
0.0
 10
145.8165186839348
 20
143.4187306443935
 30
0.0
 10
145.9660359266304
 20
143.5971867082559
 30
0.0
 10
146.1148641497743
 20
143.7763317916699
 30
0.0
 10
146.2835016850266
 20
143.83696551221
 30
0.0
 10
146.4721207872749
 20
143.7752982623425
 30
0.0
 10
146.6018287178622
 20
143.7343015990228
 30
0.0
 10
146.6981192001972
 20
143.6006318060139
 30
0.0
 10
146.76099223428
 20
143.37394437354
 30
0.0
 10
146.8242097781386
 20
143.1465679215145
 30
0.0
 10
146.8664122256737
 20
142.9133348033005
 30
0.0
 10
146.8875995768851
 20
142.675967567777
 30
0.0
 10
146.9196389860342
 20
142.2849489722483
 30
0.0
 10
146.9070643792176
 20
141.881528024791
 30
0.0
 10
146.8498757564354
 20
141.4684608036114
 30
0.0
  0
SPLINE
  5
1AD
330
3C
100
AcDbEntity
  8
Ebene 9
 62
   250
420
  2301728
370
     9
100
AcDbSpline
210
0.0
220
0.0
230
1.0
 70
    11
 71
     3
 72
    26
 73
    22
 74
     0
 42
0.0000000001
 43
0.0000000001
 40
0.0
 40
0.0
 40
0.0
 40
0.0
 40
1.0
 40
1.0
 40
1.0
 40
2.0
 40
2.0
 40
2.0
 40
3.0
 40
3.0
 40
3.0
 40
4.0
 40
4.0
 40
4.0
 40
5.0
 40
5.0
 40
5.0
 40
6.0
 40
6.0
 40
6.0
 40
7.0
 40
7.0
 40
7.0
 40
7.0
 10
156.4308648762148
 20
137.8025322793644
 30
0.0
 10
156.3144205719957
 20
137.2592403629338
 30
0.0
 10
156.1669703879549
 20
136.8427280439962
 30
0.0
 10
155.9881698143167
 20
136.5554068909822
 30
0.0
 10
155.8090247309027
 20
136.2687747575198
 30
0.0
 10
155.64124847009
 20
136.0879071252268
 30
0.0
 10
155.4848410318785
 20
136.0141820332065
 30
0.0
 10
155.3287781034429
 20
135.9404569411861
 30
0.0
 10
155.1985534081919
 20
135.9573379202001
 30
0.0
 10
155.0958894950047
 20
136.0644804604727
 30
0.0
 10
154.9925365622658
 20
136.1709339811937
 30
0.0
 10
154.958430094462
 20
136.3421553397644
 30
0.0
 10
154.993914601369
 20
136.5767664970816
 30
0.0
 10
155.0524812632543
 20
136.9870776400548
 30
0.0
 10
155.2285257586862
 20
137.3153954563886
 30
0.0
 10
155.5223925974403
 20
137.5655095536166
 30
0.0
 10
155.8155704166428
 20
137.8156236508446
 30
0.0
 10
156.1356199983575
 20
137.995802263586
 30
0.0
 10
156.4825413425842
 20
138.109145979823
 30
0.0
 10
156.4653158537944
 20
138.0068265764115
 30
0.0
 10
156.4480903650046
 20
137.9048516827758
 30
0.0
 10
156.4308648762148
 20
137.8025322793644
 30
0.0
  0
SPLINE
  5
1AE
330
3C
100
AcDbEntity
  8
Ebene 9
 62
   250
420
  2301728
370
     9
100
AcDbSpline
210
0.0
220
0.0
230
1.0
 70
    11
 71
     3
 72
    47
 73
    43
 74
     0
 42
0.0000000001
 43
0.0000000001
 40
0.0
 40
0.0
 40
0.0
 40
0.0
 40
1.0
 40
1.0
 40
1.0
 40
2.0
 40
2.0
 40
2.0
 40
3.0
 40
3.0
 40
3.0
 40
4.0
 40
4.0
 40
4.0
 40
5.0
 40
5.0
 40
5.0
 40
6.0
 40
6.0
 40
6.0
 40
7.0
 40
7.0
 40
7.0
 40
8.0
 40
8.0
 40
8.0
 40
9.0
 40
9.0
 40
9.0
 40
10.0
 40
10.0
 40
10.0
 40
11.0
 40
11.0
 40
11.0
 40
12.0
 40
12.0
 40
12.0
 40
13.0
 40
13.0
 40
13.0
 40
14.0
 40
14.0
 40
14.0
 40
14.0
 10
156.7078507359549
 20
141.8160711673897
 30
0.0
 10
156.6747777974785
 20
141.4281531598432
 30
0.0
 10
156.6058758423193
 20
141.0650398561541
 30
0.0
 10
156.5008003607014
 20
140.7267312563222
 30
0.0
 10
156.4656603635702
 20
140.637503224391
 30
0.0
 10
156.430520366439
 20
140.5348393112038
 30
0.0
 10
156.3957248790836
 20
140.4173614776573
 30
0.0
 10
156.3602403721766
 20
140.2991946245592
 30
0.0
 10
156.3219997870632
 20
140.191363064735
 30
0.0
 10
156.2816921432951
 20
140.0949003275121
 30
0.0
 10
156.2396619506479
 20
139.9977485707375
 30
0.0
 10
156.1866074451753
 20
139.9140326952191
 30
0.0
 10
156.1211505877741
 20
139.8430636814051
 30
0.0
 10
156.0556937303728
 20
139.7731281969184
 30
0.0
 10
155.9750784428365
 20
139.7331650629261
 30
0.0
 10
155.8793047251651
 20
139.724896828307
 30
0.0
 10
155.6881017995983
 20
139.7087048688446
 30
0.0
 10
155.5406516155575
 20
139.809301723377
 30
0.0
 10
155.4372986828186
 20
140.0263428821286
 30
0.0
 10
155.3349792794072
 20
140.2430395311044
 30
0.0
 10
155.2674553633511
 20
140.5169248028624
 30
0.0
 10
155.2361049737537
 20
140.8473096778509
 30
0.0
 10
155.2047545841562
 20
141.1770055332878
 30
0.0
 10
155.2057881134836
 20
141.5359847196674
 30
0.0
 10
155.2398945812874
 20
141.920457629456
 30
0.0
 10
155.2736565393155
 20
142.3052750490203
 30
0.0
 10
155.3349792794072
 20
142.6625316865209
 30
0.0
 10
155.4224847624594
 20
142.9908495028546
 30
0.0
 10
155.5099902455116
 20
143.3202008485158
 30
0.0
 10
155.6157547466811
 20
143.5913300420674
 30
0.0
 10
155.7394337561919
 20
143.8056151226126
 30
0.0
 10
155.8631127657027
 20
144.0199002031578
 30
0.0
 10
156.0022947151243
 20
144.1156739208292
 30
0.0
 10
156.1569796044568
 20
144.0950033342814
 30
0.0
 10
156.2999511614123
 20
144.0732992184062
 30
0.0
 10
156.4188070340619
 20
143.9472086404648
 30
0.0
 10
156.5159587908364
 20
143.7177651297846
 30
0.0
 10
156.6127660378352
 20
143.4872880897769
 30
0.0
 10
156.677189365909
 20
143.2103022300368
 30
0.0
 10
156.7095732848339
 20
142.8847404919094
 30
0.0
 10
156.7412681842071
 20
142.559178753782
 30
0.0
 10
156.7412681842071
 20
142.2033001553846
 30
0.0
 10
156.7078507359549
 20
141.8160711673897
 30
0.0
  0
INSERT
  5
1B0
330
3C
100
AcDbEntity
  8
Ebene 9
100
AcDbBlockReference
  2
block 6
 10
0.0
 20
0.0
 30
0.0
  0
SPLINE
  5
1B6
330
3C
100
AcDbEntity
  8
Ebene 9
 62
   250
420
  2301728
370
     9
100
AcDbSpline
210
0.0
220
0.0
230
1.0
 70
    11
 71
     3
 72
   317
 73
   313
 74
     0
 42
0.0000000001
 43
0.0000000001
 40
0.0
 40
0.0
 40
0.0
 40
0.0
 40
1.0
 40
1.0
 40
1.0
 40
2.0
 40
2.0
 40
2.0
 40
3.0
 40
3.0
 40
3.0
 40
4.0
 40
4.0
 40
4.0
 40
5.0
 40
5.0
 40
5.0
 40
6.0
 40
6.0
 40
6.0
 40
7.0
 40
7.0
 40
7.0
 40
8.0
 40
8.0
 40
8.0
 40
9.0
 40
9.0
 40
9.0
 40
10.0
 40
10.0
 40
10.0
 40
11.0
 40
11.0
 40
11.0
 40
12.0
 40
12.0
 40
12.0
 40
13.0
 40
13.0
 40
13.0
 40
14.0
 40
14.0
 40
14.0
 40
15.0
 40
15.0
 40
15.0
 40
16.0
 40
16.0
 40
16.0
 40
17.0
 40
17.0
 40
17.0
 40
18.0
 40
18.0
 40
18.0
 40
19.0
 40
19.0
 40
19.0
 40
20.0
 40
20.0
 40
20.0
 40
21.0
 40
21.0
 40
21.0
 40
22.0
 40
22.0
 40
22.0
 40
23.0
 40
23.0
 40
23.0
 40
24.0
 40
24.0
 40
24.0
 40
25.0
 40
25.0
 40
25.0
 40
26.0
 40
26.0
 40
26.0
 40
27.0
 40
27.0
 40
27.0
 40
28.0
 40
28.0
 40
28.0
 40
29.0
 40
29.0
 40
29.0
 40
30.0
 40
30.0
 40
30.0
 40
31.0
 40
31.0
 40
31.0
 40
32.0
 40
32.0
 40
32.0
 40
33.0
 40
33.0
 40
33.0
 40
34.0
 40
34.0
 40
34.0
 40
35.0
 40
35.0
 40
35.0
 40
36.0
 40
36.0
 40
36.0
 40
37.0
 40
37.0
 40
37.0
 40
38.0
 40
38.0
 40
38.0
 40
39.0
 40
39.0
 40
39.0
 40
40.0
 40
40.0
 40
40.0
 40
41.0
 40
41.0
 40
41.0
 40
42.0
 40
42.0
 40
42.0
 40
43.0
 40
43.0
 40
43.0
 40
44.0
 40
44.0
 40
44.0
 40
45.0
 40
45.0
 40
45.0
 40
46.0
 40
46.0
 40
46.0
 40
47.0
 40
47.0
 40
47.0
 40
48.0
 40
48.0
 40
48.0
 40
49.0
 40
49.0
 40
49.0
 40
50.0
 40
50.0
 40
50.0
 40
51.0
 40
51.0
 40
51.0
 40
52.0
 40
52.0
 40
52.0
 40
53.0
 40
53.0
 40
53.0
 40
54.0
 40
54.0
 40
54.0
 40
55.0
 40
55.0
 40
55.0
 40
56.0
 40
56.0
 40
56.0
 40
57.0
 40
57.0
 40
57.0
 40
58.0
 40
58.0
 40
58.0
 40
59.0
 40
59.0
 40
59.0
 40
60.0
 40
60.0
 40
60.0
 40
61.0
 40
61.0
 40
61.0
 40
62.0
 40
62.0
 40
62.0
 40
63.0
 40
63.0
 40
63.0
 40
64.0
 40
64.0
 40
64.0
 40
65.0
 40
65.0
 40
65.0
 40
66.0
 40
66.0
 40
66.0
 40
67.0
 40
67.0
 40
67.0
 40
68.0
 40
68.0
 40
68.0
 40
69.0
 40
69.0
 40
69.0
 40
70.0
 40
70.0
 40
70.0
 40
71.0
 40
71.0
 40
71.0
 40
72.0
 40
72.0
 40
72.0
 40
73.0
 40
73.0
 40
73.0
 40
74.0
 40
74.0
 40
74.0
 40
75.0
 40
75.0
 40
75.0
 40
76.0
 40
76.0
 40
76.0
 40
77.0
 40
77.0
 40
77.0
 40
78.0
 40
78.0
 40
78.0
 40
79.0
 40
79.0
 40
79.0
 40
80.0
 40
80.0
 40
80.0
 40
81.0
 40
81.0
 40
81.0
 40
82.0
 40
82.0
 40
82.0
 40
83.0
 40
83.0
 40
83.0
 40
84.0
 40
84.0
 40
84.0
 40
85.0
 40
85.0
 40
85.0
 40
86.0
 40
86.0
 40
86.0
 40
87.0
 40
87.0
 40
87.0
 40
88.0
 40
88.0
 40
88.0
 40
89.0
 40
89.0
 40
89.0
 40
90.0
 40
90.0
 40
90.0
 40
91.0
 40
91.0
 40
91.0
 40
92.0
 40
92.0
 40
92.0
 40
93.0
 40
93.0
 40
93.0
 40
94.0
 40
94.0
 40
94.0
 40
95.0
 40
95.0
 40
95.0
 40
96.0
 40
96.0
 40
96.0
 40
97.0
 40
97.0
 40
97.0
 40
98.0
 40
98.0
 40
98.0
 40
99.0
 40
99.0
 40
99.0
 40
100.0
 40
100.0
 40
100.0
 40
101.0
 40
101.0
 40
101.0
 40
102.0
 40
102.0
 40
102.0
 40
103.0
 40
103.0
 40
103.0
 40
104.0
 40
104.0
 40
104.0
 40
104.0
 10
191.4502835858954
 20
161.2291970335038
 30
0.0
 10
191.4072198639208
 20
161.2782896765548
 30
0.0
 10
191.3531318291208
 20
161.3006828119815
 30
0.0
 10
191.2890530108228
 20
161.2953429104567
 30
0.0
 10
191.2239406631973
 20
161.2894862442682
 30
0.0
 10
191.1564167471412
 20
161.2617532073166
 30
0.0
 10
191.0864812626546
 20
161.2104212507229
 30
0.0
 10
191.0155122488406
 20
161.1584002745777
 30
0.0
 10
190.9645248020228
 20
161.0772682223777
 30
0.0
 10
190.9328299026495
 20
160.9658193099077
 30
0.0
 10
190.9114702965502
 20
160.8798641208465
 30
0.0
 10
190.8632389279387
 20
160.7393041323217
 30
0.0
 10
190.7881357968151
 20
160.5401774819115
 30
0.0
 10
190.7126881559158
 20
160.3407063217255
 30
0.0
 10
190.6217375751056
 20
160.1181530065612
 30
0.0
 10
190.5152840543846
 20
159.8714840070911
 30
0.0
 10
190.4081415141119
 20
159.6237814782937
 30
0.0
 10
190.2841179948253
 20
159.3610927742491
 30
0.0
 10
190.1445915356279
 20
159.0810063265268
 30
0.0
 10
190.0054095862062
 20
158.8012643885803
 30
0.0
 10
189.8596819510445
 20
158.5468439191549
 30
0.0
 10
189.7080976496941
 20
158.3198119769052
 30
0.0
 10
189.556168838568
 20
158.0922632699918
 30
0.0
 10
189.3987278710292
 20
157.9012325993128
 30
0.0
 10
189.235085727526
 20
157.7499928077383
 30
0.0
 10
189.071099074247
 20
157.5977194868364
 30
0.0
 10
188.9167586946903
 20
157.5265782181345
 30
0.0
 10
188.7724090986317
 20
157.5398418445027
 30
0.0
 10
188.662165970377
 20
157.5489713535613
 30
0.0
 10
188.5750049971005
 20
157.615289485402
 30
0.0
 10
188.513337747233
 20
157.7401742791281
 30
0.0
 10
188.4502924582623
 20
157.8641977984148
 30
0.0
 10
188.405161677633
 20
158.0254283734874
 30
0.0
 10
188.3758783466903
 20
158.2219712005791
 30
0.0
 10
188.3459059961961
 20
158.4188585374466
 30
0.0
 10
188.3328146247158
 20
158.644684695481
 30
0.0
 10
188.3366042322496
 20
158.9001386942338
 30
0.0
 10
188.3397048202318
 20
159.1543869087714
 30
0.0
 10
188.3572748187974
 20
159.4182813970313
 30
0.0
 10
188.3875916790674
 20
159.6895828454708
 30
0.0
 10
188.5102371592509
 20
159.723000293723
 30
0.0
 10
188.6514861673273
 20
159.7672697999128
 30
0.0
 10
188.8113387032967
 20
159.8232526384797
 30
0.0
 10
188.9715357490419
 20
159.8788909672708
 30
0.0
 10
189.1282876970292
 20
159.9505490006364
 30
0.0
 10
189.2826280765859
 20
160.0383989934644
 30
0.0
 10
189.4359349268152
 20
160.1253877118529
 30
0.0
 10
189.578217464219
 20
160.2263290761612
 30
0.0
 10
189.7094756887973
 20
160.339845047286
 30
0.0
 10
189.8403894035999
 20
160.453188763523
 30
0.0
 10
189.9485654731999
 20
160.5854805174287
 30
0.0
 10
190.0353819367005
 20
160.7362035443395
 30
0.0
 10
190.1435580063005
 20
160.9153486277535
 30
0.0
 10
190.1886887869298
 20
161.1379019429179
 30
0.0
 10
190.1707742785884
 20
161.4079976071421
 30
0.0
 10
190.1525152604712
 20
161.6779210164783
 30
0.0
 10
190.0874029128457
 20
161.9332027603433
 30
0.0
 10
189.9764707650394
 20
162.1796995049255
 30
0.0
 10
189.8648495976814
 20
162.4258517397318
 30
0.0
 10
189.7063751008152
 20
162.6363472127433
 30
0.0
 10
189.5003582548891
 20
162.8144587668299
 30
0.0
 10
189.2946859187387
 20
162.9922258111407
 30
0.0
 10
189.0586967223184
 20
163.0723243340133
 30
0.0
 10
188.7934241949553
 20
163.0490699241471
 30
0.0
 10
188.5164383352152
 20
163.0249542398414
 30
0.0
 10
188.264946198884
 20
162.8478762150821
 30
0.0
 10
188.0396368055133
 20
162.5090508505866
 30
0.0
 10
187.8143274121426
 20
162.1698809763153
 30
0.0
 10
187.6286366429885
 20
161.7476842460771
 30
0.0
 10
187.4811864589477
 20
161.2403936012172
 30
0.0
 10
187.4002266616356
 20
160.9603071534949
 30
0.0
 10
187.3358033335617
 20
160.6685073733956
 30
0.0
 10
187.2851603965197
 20
160.3679225940134
 30
0.0
 10
187.2217705977732
 20
160.3572427909637
 30
0.0
 10
187.1749172682649
 20
160.3693006331166
 30
0.0
 10
187.1411553102369
 20
160.3830810241485
 30
0.0
 10
186.9461627771362
 20
160.4649020959
 30
0.0
 10
186.7494476951566
 20
160.8175078514274
 30
0.0
 10
186.621979078112
 20
161.3089510466006
 30
0.0
 10
186.6257686856458
 20
161.3482251610414
 30
0.0
 10
186.6302473127312
 20
161.3812980995178
 30
0.0
 10
186.6333479007133
 20
161.4052415289357
 30
0.0
 10
186.6433386842114
 20
161.5371887730656
 30
0.0
 10
186.6116437848382
 20
161.6336515102885
 30
0.0
 10
186.5389522221452
 20
161.6949742503803
 30
0.0
 10
186.4655716399006
 20
161.7564692453599
 30
0.0
 10
186.3849563523643
 20
161.7850635567509
 30
0.0
 10
186.2950393008815
 20
161.7800681650019
 30
0.0
 10
186.2054667591745
 20
161.7755895379166
 30
0.0
 10
186.1189948054497
 20
161.7378657174669
 30
0.0
 10
186.035623439707
 20
161.6674134683166
 30
0.0
 10
185.9512185446369
 20
161.5967889642783
 30
0.0
 10
185.9098773715414
 20
161.4958475999701
 30
0.0
 10
185.9102218813172
 20
161.3630390814006
 30
0.0
 10
185.9109109008688
 20
161.2167946815752
 30
0.0
 10
185.8898958045452
 20
160.9572065655128
 30
0.0
 10
185.8464875727949
 20
160.5830689489981
 30
0.0
 10
185.8030793410446
 20
160.2082423129319
 30
0.0
 10
185.7458907182624
 20
159.8263532264618
 30
0.0
 10
185.673888175121
 20
159.4361959053727
 30
0.0
 10
185.6018856319796
 20
159.0463830940593
 30
0.0
 10
185.5181697564611
 20
158.6986004753931
 30
0.0
 10
185.4230850583414
 20
158.3933648140377
 30
0.0
 10
185.3280003602216
 20
158.0884736624581
 30
0.0
 10
185.2291260545682
 20
157.9332720084619
 30
0.0
 10
185.1278401804841
 20
157.9287933813766
 30
0.0
 10
185.0365450898981
 20
157.924659264067
 30
0.0
 10
184.9455945090879
 20
158.047993763802
 30
0.0
 10
184.8549884380535
 20
158.2996581550211
 30
0.0
 10
184.7636933474675
 20
158.5511502913523
 30
0.0
 10
184.6927243336535
 20
158.8675825204211
 30
0.0
 10
184.6413923770599
 20
159.2484380775638
 30
0.0
 10
184.590404930242
 20
159.6289491249306
 30
0.0
 10
184.5614661090752
 20
160.0363319348096
 30
0.0
 10
184.5552649331108
 20
160.4716200365281
 30
0.0
 10
184.5490637571465
 20
160.9062191186949
 30
0.0
 10
184.5914384595694
 20
161.311707124807
 30
0.0
 10
184.6806664915006
 20
161.6872227804248
 30
0.0
 10
184.7030596269274
 20
161.8081457117293
 30
0.0
 10
184.6465600236968
 20
161.8908280579204
 30
0.0
 10
184.5122012111363
 20
161.9368201129892
 30
0.0
 10
184.3774978888
 20
161.9826399131701
 30
0.0
 10
184.2266026070013
 20
161.9922861868924
 30
0.0
 10
184.0577928168612
 20
161.9664479537076
 30
0.0
 10
183.8900165560484
 20
161.9406097205229
 30
0.0
 10
183.7291304907516
 20
161.8686071773815
 30
0.0
 10
183.5775461894013
 20
161.7513015987229
 30
0.0
 10
183.4263063978268
 20
161.6339960200643
 30
0.0
 10
183.3443130711873
 20
161.4624301517179
 30
0.0
 10
183.332944248586
 20
161.2353982094682
 30
0.0
 10
183.3060724860739
 20
160.9959639152898
 30
0.0
 10
183.2895360168357
 20
160.7553238368962
 30
0.0
 10
183.2809232724408
 20
160.512272190072
 30
0.0
 10
183.1744697517198
 20
160.4857449373357
 30
0.0
 10
183.104878777009
 20
160.5119276802962
 30
0.0
 10
183.0587144670523
 20
160.5382826781446
 30
0.0
 10
182.8564872286599
 20
160.6550714921395
 30
0.0
 10
182.6559825391465
 20
161.0638323411217
 30
0.0
 10
182.5354041176179
 20
161.6019566109153
 30
0.0
 10
182.4882062783338
 20
161.8117630643752
 30
0.0
 10
182.3076831558166
 20
161.9412987400745
 30
0.0
 10
182.1323276799364
 20
161.8944454105662
 30
0.0
 10
182.1157912106982
 20
161.8901390383688
 30
0.0
 10
182.1009772903389
 20
161.8834210977408
 30
0.0
 10
182.0861633699797
 20
161.8763586473369
 30
0.0
 10
181.8605094668332
 20
162.0703176511102
 30
0.0
 10
181.5835236070931
 20
162.1891735237598
 30
0.0
 10
181.2548612809835
 20
162.2351655788287
 30
0.0
 10
180.9206867984612
 20
162.2844304767675
 30
0.0
 10
180.6302650574651
 20
162.2050209734465
 30
0.0
 10
180.383596057995
 20
162.0003821666236
 30
0.0
 10
180.1379605878523
 20
161.7962601244643
 30
0.0
 10
179.9384894276664
 20
161.533054655756
 30
0.0
 10
179.7865606165403
 20
161.2100767409472
 30
0.0
 10
179.7038782703492
 20
161.0360993041701
 30
0.0
 10
179.6394549422753
 20
160.8502362801281
 30
0.0
 10
179.5891565150091
 20
160.6536934530363
 30
0.0
 10
179.5753761239772
 20
160.6273384551879
 30
0.0
 10
179.5640073013759
 20
160.5980551242453
 30
0.0
 10
179.5560835765326
 20
160.5620538526746
 30
0.0
 10
179.5223216185046
 20
160.4685194485459
 30
0.0
 10
179.454108682897
 20
160.2654309357141
 30
0.0
 10
179.3521337892613
 20
159.957955960816
 30
0.0
 10
179.2505034054014
 20
159.6511700054695
 30
0.0
 10
179.1402602771467
 20
159.3400776779255
 30
0.0
 10
179.0227824436002
 20
159.02829633083
 30
0.0
 10
178.9046155905021
 20
158.715653709295
 30
0.0
 10
178.7878267765072
 20
158.4450412804071
 30
0.0
 10
178.6713824722881
 20
158.2162867892784
 30
0.0
 10
178.5552826778448
 20
157.9870155334861
 30
0.0
 10
178.4646766068104
 20
157.8867631887294
 30
0.0
 10
178.3999087689607
 20
157.9093285790441
 30
0.0
 10
178.2913881895849
 20
157.9468801446058
 30
0.0
 10
178.2197301562193
 20
158.1306761099931
 30
0.0
 10
178.1835566297607
 20
158.4558933383447
 30
0.0
 10
178.1473831033021
 20
158.7812828215842
 30
0.0
 10
178.133947222046
 20
159.1859095532567
 30
0.0
 10
178.1422154566652
 20
159.6727018664567
 30
0.0
 10
178.1501391815085
 20
160.1591496698809
 30
0.0
 10
178.1721878071594
 20
160.6871109012886
 30
0.0
 10
178.208361333618
 20
161.2581358546707
 30
0.0
 10
178.2445348600766
 20
161.8291608080529
 30
0.0
 10
178.2862205429479
 20
162.3817544884299
 30
0.0
 10
178.3341074017836
 20
162.9155723860261
 30
0.0
 10
178.3806162215161
 20
163.4497347933981
 30
0.0
 10
178.4309146487823
 20
163.9239524997815
 30
0.0
 10
178.483969154255
 20
164.3385700149522
 30
0.0
 10
178.536334640176
 20
164.7528430203471
 30
0.0
 10
178.5738862057378
 20
165.0332739778451
 30
0.0
 10
178.5973128704919
 20
165.1767622994642
 30
0.0
 10
178.6317638480715
 20
165.3677929701432
 30
0.0
 10
178.5855995381148
 20
165.5252339376821
 30
0.0
 10
178.4595089601734
 20
165.645295594547
 30
0.0
 10
178.3327293626804
 20
165.765357251412
 30
0.0
 10
178.1832121199849
 20
165.8299528343738
 30
0.0
 10
178.0109572320868
 20
165.8420106765266
 30
0.0
 10
177.8393913637403
 20
165.8533794991279
 30
0.0
 10
177.6809168668741
 20
165.8037700914133
 30
0.0
 10
177.5362227610397
 20
165.6966275511407
 30
0.0
 10
177.3922176747569
 20
165.5887959913165
 30
0.0
 10
177.3198706218397
 20
165.4015549281712
 30
0.0
 10
177.3191816022881
 20
165.131631518835
 30
0.0
 10
177.3184925827365
 20
164.8832399704859
 30
0.0
 10
177.295754937534
 20
164.519782157021
 30
0.0
 10
177.2513131764563
 20
164.0465979799649
 30
0.0
 10
177.2065269056028
 20
163.5728970382452
 30
0.0
 10
177.1620851445251
 20
163.0528595316809
 30
0.0
 10
177.1183324029989
 20
162.4870022249357
 30
0.0
 10
177.0745796614728
 20
161.920283643751
 30
0.0
 10
177.0452963305302
 20
161.3423684948529
 30
0.0
 10
177.0294488808435
 20
160.7480891316045
 30
0.0
 10
177.0132569213811
 20
160.1538097683561
 30
0.0
 10
177.0318604492741
 20
159.6050056955128
 30
0.0
 10
177.0845704449709
 20
159.0940976980071
 30
0.0
 10
177.1376249504435
 20
158.5831897005014
 30
0.0
 10
177.2344321974423
 20
158.1354992468542
 30
0.0
 10
177.3770592446219
 20
157.7479257490835
 30
0.0
 10
177.5193417820257
 20
157.3613857806403
 30
0.0
 10
177.7322488234677
 20
157.0955964886135
 30
0.0
 10
178.0212925253607
 20
156.9720897339906
 30
0.0
 10
178.3323848529046
 20
156.839625725197
 30
0.0
 10
178.603858556232
 20
156.8892351329116
 30
0.0
 10
178.8357136353428
 20
157.1260856037715
 30
0.0
 10
179.0661906753505
 20
157.3632805844071
 30
0.0
 10
179.2673843844154
 20
157.6793683037001
 30
0.0
 10
179.4361941745556
 20
158.0695256247893
 30
0.0
 10
179.5192210305224
 20
158.2615898247956
 30
0.0
 10
179.596046710525
 20
158.4593384361026
 30
0.0
 10
179.66529317546
 20
158.6612211647192
 30
0.0
 10
179.7610668931314
 20
158.4133463810338
 30
0.0
 10
179.8943921763645
 20
158.1821803214746
 30
0.0
 10
180.0663025544868
 20
157.9722016131269
 30
0.0
 10
180.3088374366473
 20
157.6771289901574
 30
0.0
 10
180.6364662334294
 20
157.4824809668326
 30
0.0
 10
181.0509114937122
 20
157.4084113650364
 30
0.0
 10
181.4216040124689
 20
157.3429545076351
 30
0.0
 10
181.7406200648561
 20
157.4151293056644
 30
0.0
 10
182.0072706313224
 20
157.6211461515906
 30
0.0
 10
182.2735766880128
 20
157.826646232853
 30
0.0
 10
182.4816605925937
 20
158.1069049354631
 30
0.0
 10
182.6301443059618
 20
158.4538262796899
 30
0.0
 10
182.7782835095542
 20
158.8012643885803
 30
0.0
 10
182.8619993850727
 20
159.1859095532567
 30
0.0
 10
182.8799138934141
 20
159.6039721661854
 30
0.0
 10
182.8830144813962
 20
159.6658116709408
 30
0.0
 10
182.8837035009478
 20
159.7267899012568
 30
0.0
 10
182.8837035009478
 20
159.7882848962363
 30
0.0
 10
182.9691419253453
 20
159.7505610757867
 30
0.0
 10
183.069394270102
 20
159.7217945095077
 30
0.0
 10
183.1841160254421
 20
159.7173158824224
 30
0.0
 10
183.2161554345911
 20
159.7159378433192
 30
0.0
 10
183.2499173926192
 20
159.7166268628708
 30
0.0
 10
183.284023860423
 20
159.7190384313013
 30
0.0
 10
183.2854018995262
 20
159.6975065703141
 30
0.0
 10
183.2854018995262
 20
159.6766637288784
 30
0.0
 10
183.2867799386293
 20
159.6549596130032
 30
0.0
 10
183.3133071913657
 20
159.1197636763039
 30
0.0
 10
183.3856542442828
 20
158.6364164608619
 30
0.0
 10
183.5034765876051
 20
158.2047457117893
 30
0.0
 10
183.6212989309274
 20
157.772558198053
 30
0.0
 10
183.7880416624128
 20
157.4225362658441
 30
0.0
 10
184.004049291837
 20
157.1584695226963
 30
0.0
 10
184.2190233919338
 20
156.8945750344364
 30
0.0
 10
184.4877410170548
 20
156.77709720089
 30
0.0
 10
184.8057235401147
 20
156.8136152371243
 30
0.0
 10
185.0561821471185
 20
156.83445807856
 30
0.0
 10
185.2746013449732
 20
156.9538307158734
 30
0.0
 10
185.4616701532306
 20
157.1662209926517
 30
0.0
 10
185.6477054321605
 20
157.3782667596543
 30
0.0
 10
185.8085914974573
 20
157.6435392870173
 30
0.0
 10
185.942605800242
 20
157.9604882807498
 30
0.0
 10
186.0769646128025
 20
158.2770927647065
 30
0.0
 10
186.1878967606089
 20
158.6181574427447
 30
0.0
 10
186.2760912632127
 20
158.9828210404249
 30
0.0
 10
186.3598071387312
 20
159.3280198357727
 30
0.0
 10
186.4249194863567
 20
159.658749220537
 30
0.0
 10
186.4731508549681
 20
159.9763872338211
 30
0.0
 10
186.5858055516535
 20
159.8356549904083
 30
0.0
 10
186.7177527957834
 20
159.7204164704045
 30
0.0
 10
186.8748492535464
 20
159.6544428483396
 30
0.0
 10
186.9578761095133
 20
159.6191305963204
 30
0.0
 10
187.0646741400101
 20
159.5939813826873
 30
0.0
 10
187.1893866788483
 20
159.5960484413421
 30
0.0
 10
187.1456339373222
 20
159.0326027030275
 30
0.0
 10
187.1635484456636
 20
158.5103258829205
 30
0.0
 10
187.2445082429757
 20
158.0349023923218
 30
0.0
 10
187.3265015696152
 20
157.5522441964313
 30
0.0
 10
187.4808419491719
 20
157.1682880513065
 30
0.0
 10
187.7075293816458
 20
156.8916467013422
 30
0.0
 10
187.9342168141197
 20
156.6151776062657
 30
0.0
 10
188.2490987491973
 20
156.5276721232135
 30
0.0
 10
188.6473520500177
 20
156.6382597612441
 30
0.0
 10
188.9794594738852
 20
156.7304161262696
 30
0.0
 10
189.2781494495005
 20
156.9066328765893
 30
0.0
 10
189.5441109964152
 20
157.1534741309473
 30
0.0
 10
189.8107615628814
 20
157.4004876401931
 30
0.0
 10
190.0453727201986
 20
157.6785070292606
 30
0.0
 10
190.2493225074699
 20
157.9827091612886
 30
0.0
 10
190.4532722947413
 20
158.2862222737651
 30
0.0
 10
190.6265607119667
 20
158.6002429344033
 30
0.0
 10
190.7709103080253
 20
158.9230485943243
 30
0.0
 10
190.9142263747565
 20
159.2449929798058
 30
0.0
 10
191.03687185494
 20
159.5466112885154
 30
0.0
 10
191.138157729024
 20
159.8296260693319
 30
0.0
 10
191.2390990933323
 20
160.1126408501485
 30
0.0
 10
191.3162692831106
 20
160.3582763202911
 30
0.0
 10
191.3700128081348
 20
160.5699775775179
 30
0.0
 10
191.4234118233832
 20
160.7818510896325
 30
0.0
 10
191.4606188791692
 20
160.923100097709
 30
0.0
 10
191.4826675048202
 20
160.9959639152898
 30
0.0
 10
191.5036826011438
 20
161.1020729262351
 30
0.0
 10
191.4926582883183
 20
161.1792431160134
 30
0.0
 10
191.4502835858954
 20
161.2291970335038
 30
0.0
  0
SPLINE
  5
1B7
330
3C
100
AcDbEntity
  8
Ebene 9
 62
   250
420
  2301728
370
     9
100
AcDbSpline
210
0.0
220
0.0
230
1.0
 70
    11
 71
     3
 72
    29
 73
    25
 74
     0
 42
0.0000000001
 43
0.0000000001
 40
0.0
 40
0.0
 40
0.0
 40
0.0
 40
1.0
 40
1.0
 40
1.0
 40
2.0
 40
2.0
 40
2.0
 40
3.0
 40
3.0
 40
3.0
 40
4.0
 40
4.0
 40
4.0
 40
5.0
 40
5.0
 40
5.0
 40
6.0
 40
6.0
 40
6.0
 40
7.0
 40
7.0
 40
7.0
 40
8.0
 40
8.0
 40
8.0
 40
8.0
 10
188.7548391000661
 20
161.683605427779
 30
0.0
 10
188.8406220342394
 20
161.9771277567573
 30
0.0
 10
188.9226153608789
 20
162.1450762724579
 30
0.0
 10
188.9997855506572
 20
162.1917573470783
 30
0.0
 10
189.0438828019591
 20
162.2219019524605
 30
0.0
 10
189.0848794652789
 20
162.1898625433114
 30
0.0
 10
189.1248425992712
 20
162.095983629407
 30
0.0
 10
189.1637722039362
 20
162.0021047155026
 30
0.0
 10
189.1927110251031
 20
161.8823875684134
 30
0.0
 10
189.2106255334445
 20
161.7368321881395
 30
0.0
 10
189.2281955320101
 20
161.5911045529777
 30
0.0
 10
189.2326741590954
 20
161.4470994666949
 30
0.0
 10
189.2226833755973
 20
161.3036111450758
 30
0.0
 10
189.2123480823234
 20
161.159606058793
 30
0.0
 10
189.1858208295871
 20
161.0476403816592
 30
0.0
 10
189.1424125978368
 20
160.9659915647956
 30
0.0
 10
189.087980053261
 20
160.8574709854198
 30
0.0
 10
189.0004745702088
 20
160.7772002076593
 30
0.0
 10
188.8788626193528
 20
160.7262127608414
 30
0.0
 10
188.7572506684967
 20
160.6748808042478
 30
0.0
 10
188.6359832274165
 20
160.6393962973408
 30
0.0
 10
188.5136822570088
 20
160.6207927694478
 30
0.0
 10
188.587751858805
 20
161.0364438139459
 30
0.0
 10
188.6680226365655
 20
161.3904276085764
 30
0.0
 10
188.7548391000661
 20
161.683605427779
 30
0.0
  0
SPLINE
  5
1B8
330
3C
100
AcDbEntity
  8
Ebene 9
 62
   250
420
  2301728
370
     9
100
AcDbSpline
210
0.0
220
0.0
230
1.0
 70
    11
 71
     3
 72
    41
 73
    37
 74
     0
 42
0.0000000001
 43
0.0000000001
 40
0.0
 40
0.0
 40
0.0
 40
0.0
 40
1.0
 40
1.0
 40
1.0
 40
2.0
 40
2.0
 40
2.0
 40
3.0
 40
3.0
 40
3.0
 40
4.0
 40
4.0
 40
4.0
 40
5.0
 40
5.0
 40
5.0
 40
6.0
 40
6.0
 40
6.0
 40
7.0
 40
7.0
 40
7.0
 40
8.0
 40
8.0
 40
8.0
 40
9.0
 40
9.0
 40
9.0
 40
10.0
 40
10.0
 40
10.0
 40
11.0
 40
11.0
 40
11.0
 40
12.0
 40
12.0
 40
12.0
 40
12.0
 10
181.7537114363364
 20
158.9823042757612
 30
0.0
 10
181.7178824196536
 20
158.7433867462466
 30
0.0
 10
181.6606937968714
 20
158.5527005853434
 30
0.0
 10
181.5814565484383
 20
158.413001871258
 30
0.0
 10
181.5011857706778
 20
158.2726141376211
 30
0.0
 10
181.4002444063695
 20
158.2181815930453
 30
0.0
 10
181.2762208870829
 20
158.2495319826428
 30
0.0
 10
181.1311822714727
 20
158.2838107053345
 30
0.0
 10
181.0137044379262
 20
158.3940538335893
 30
0.0
 10
180.9258544450982
 20
158.5761272500975
 30
0.0
 10
180.8373154327186
 20
158.7583729214937
 30
0.0
 10
180.7718585753173
 20
158.9717967275994
 30
0.0
 10
180.7294838728944
 20
159.2167431781905
 30
0.0
 10
180.6864201509199
 20
159.4613451190058
 30
0.0
 10
180.6667830936995
 20
159.721277744844
 30
0.0
 10
180.6685056425785
 20
159.9975745850325
 30
0.0
 10
180.6705727012332
 20
160.2733546605574
 30
0.0
 10
180.6922768171084
 20
160.5243300322249
 30
0.0
 10
180.7325844608766
 20
160.7511897195866
 30
0.0
 10
180.7739256339721
 20
160.9778771520605
 30
0.0
 10
180.8335258251848
 20
161.1642569407663
 30
0.0
 10
180.9137966029453
 20
161.3111903601433
 30
0.0
 10
180.9926893416026
 20
161.4582960344083
 30
0.0
 10
181.0877740397224
 20
161.5275424993433
 30
0.0
 10
181.1993952070804
 20
161.5175517158452
 30
0.0
 10
181.3220406872638
 20
161.5070441676834
 30
0.0
 10
181.4278051884332
 20
161.4136820184427
 30
0.0
 10
181.5163442008128
 20
161.2364317387955
 30
0.0
 10
181.6038496838651
 20
161.0583201847089
 30
0.0
 10
181.6727516390243
 20
160.8438628492758
 30
0.0
 10
181.7220165369631
 20
160.589959144514
 30
0.0
 10
181.7705924153504
 20
160.3363999495281
 30
0.0
 10
181.7971196680867
 20
160.0645817364249
 30
0.0
 10
181.8005647658447
 20
159.7751935247561
 30
0.0
 10
181.8046988831542
 20
159.4856330581994
 30
0.0
 10
181.7888514334676
 20
159.2212218052759
 30
0.0
 10
181.7537114363364
 20
158.9823042757612
 30
0.0
  0
ENDBLK
  5
3F
330
3C
100
AcDbEntity
  8
0
100
AcDbBlockEnd
  0
BLOCK
  5
42
330
40
100
AcDbEntity
  8
0
100
AcDbBlockBegin
  2
block 3
 70
     0
 71
     0
 10
0.0
 20
0.0
 30
0.0
  3
block 3
  1

  0
SPLINE
  5
44
330
40
100
AcDbEntity
  8
Ebene 9
 62
   250
420
  2301728
370
     9
100
AcDbSpline
210
0.0
220
0.0
230
1.0
 70
     8
 71
     3
 72
     8
 73
     4
 74
     0
 42
0.0000000001
 43
0.0000000001
 40
0.0
 40
0.0
 40
0.0
 40
0.0
 40
1.0
 40
1.0
 40
1.0
 40
1.0
 10
135.2021724916549
 20
163.224942164691
 30
0.0
 10
135.3453163034982
 20
166.0473385029011
 30
0.0
 10
134.1889692410383
 20
168.6104912348247
 30
0.0
 10
133.3767874445989
 20
171.2382395497099
 30
0.0
  0
SPLINE
  5
45
330
40
100
AcDbEntity
  8
Ebene 9
 62
   250
420
  2301728
370
     9
100
AcDbSpline
210
0.0
220
0.0
230
1.0
 70
     8
 71
     3
 72
     8
 73
     4
 74
     0
 42
0.0000000001
 43
0.0000000001
 40
0.0
 40
0.0
 40
0.0
 40
0.0
 40
1.0
 40
1.0
 40
1.0
 40
1.0
 10
107.7645526728085
 20
164.9493858474388
 30
0.0
 10
107.3068714356633
 20
167.4324400564896
 30
0.0
 10
109.2859078427244
 20
168.9525894421903
 30
0.0
 10
110.1482158115422
 20
170.984680354724
 30
0.0
  0
SPLINE
  5
46
330
40
100
AcDbEntity
  8
Ebene 9
 62
   250
420
  2301728
370
     9
100
AcDbSpline
210
0.0
220
0.0
230
1.0
 70
     8
 71
     3
 72
     8
 73
     4
 74
     0
 42
0.0000000001
 43
0.0000000001
 40
0.0
 40
0.0
 40
0.0
 40
0.0
 40
1.0
 40
1.0
 40
1.0
 40
1.0
 10
107.5111657327104
 20
139.8954291673261
 30
0.0
 10
107.4520823061614
 20
144.1604601916827
 30
0.0
 10
108.035854121248
 20
148.4003420024061
 30
0.0
 10
108.1195699967664
 20
152.6760528298124
 30
0.0
  0
SPLINE
  5
47
330
40
100
AcDbEntity
  8
Ebene 9
 62
   250
420
  2301728
370
     9
100
AcDbSpline
210
0.0
220
0.0
230
1.0
 70
     8
 71
     3
 72
     8
 73
     4
 74
     0
 42
0.0000000001
 43
0.0000000001
 40
0.0
 40
0.0
 40
0.0
 40
0.0
 40
1.0
 40
1.0
 40
1.0
 40
1.0
 10
134.2387509036409
 20
141.0109518213541
 30
0.0
 10
134.483697354232
 20
144.7237336751094
 30
0.0
 10
134.6135775397071
 20
148.4802682703908
 30
0.0
 10
134.4923100986269
 20
152.1685899300646
 30
0.0
  0
SPLINE
  5
48
330
40
100
AcDbEntity
  8
Ebene 9
 62
   250
420
  2301728
370
     9
100
AcDbSpline
210
0.0
220
0.0
230
1.0
 70
     8
 71
     3
 72
    38
 73
    34
 74
     0
 42
0.0000000001
 43
0.0000000001
 40
0.0
 40
0.0
 40
0.0
 40
0.0
 40
1.0
 40
1.0
 40
1.0
 40
2.0
 40
2.0
 40
2.0
 40
3.0
 40
3.0
 40
3.0
 40
4.0
 40
4.0
 40
4.0
 40
5.0
 40
5.0
 40
5.0
 40
6.0
 40
6.0
 40
6.0
 40
7.0
 40
7.0
 40
7.0
 40
8.0
 40
8.0
 40
8.0
 40
9.0
 40
9.0
 40
9.0
 40
10.0
 40
10.0
 40
10.0
 40
11.0
 40
11.0
 40
11.0
 40
11.0
 10
134.1881079665988
 20
172.0497323265978
 30
0.0
 10
134.1314361084804
 20
170.4599919661864
 30
0.0
 10
135.4956948206332
 20
168.6540717214629
 30
0.0
 10
135.9010105718574
 20
166.6274929653419
 30
0.0
 10
136.1745513338396
 20
165.2613394494222
 30
0.0
 10
135.9273655697058
 20
163.3386303907038
 30
0.0
 10
135.9227146877326
 20
161.658283959258
 30
0.0
 10
135.9166857666561
 20
159.4355068858211
 30
0.0
 10
135.752871368265
 20
157.1953320687065
 30
0.0
 10
135.6185125557045
 20
155.2674553633511
 30
0.0
 10
135.174956219367
 20
148.9088384314813
 30
0.0
 10
135.389585809688
 20
142.885429511461
 30
0.0
 10
134.8381979135262
 20
137.5672321024956
 30
0.0
 10
134.6308030284969
 20
135.5632187366893
 30
0.0
 10
133.5786701732154
 20
134.1397043430995
 30
0.0
 10
132.7656271023365
 20
133.0117793371428
 30
0.0
 10
130.312372988892
 20
129.6090562816041
 30
0.0
 10
126.1770498951226
 20
129.7795886206232
 30
0.0
 10
122.3259473663852
 20
129.9304839024219
 30
0.0
 10
119.9922381451419
 20
130.0210899734563
 30
0.0
 10
117.6390641215662
 20
129.5353311895837
 30
0.0
 10
115.4958688063382
 20
129.8081829320143
 30
0.0
 10
112.8331527492096
 20
130.1464915318461
 30
0.0
 10
106.8977660769053
 20
132.8409024883479
 30
0.0
 10
106.5007185603002
 20
136.9515931331478
 30
0.0
 10
107.3048043770085
 20
145.8268539772087
 30
0.0
 10
106.4168304298939
 20
154.6325238465588
 30
0.0
 10
107.0042195976263
 20
163.7167298696401
 30
0.0
 10
107.1642443884837
 20
166.1911713342961
 30
0.0
 10
107.3209963364709
 20
168.0175899106794
 30
0.0
 10
108.4509884010824
 20
169.9427105378284
 30
0.0
 10
108.9717149271983
 20
170.8296509556157
 30
0.0
 10
109.1825549099855
 20
171.7374342148386
 30
0.0
 10
109.2523181395842
 20
172.9966174453736
 30
0.0
  0
SPLINE
  5
49
330
40
100
AcDbEntity
  8
Ebene 9
 62
   250
420
  2301728
370
     9
100
AcDbSpline
210
0.0
220
0.0
230
1.0
 70
     8
 71
     3
 72
    14
 73
    10
 74
     0
 42
0.0000000001
 43
0.0000000001
 40
0.0
 40
0.0
 40
0.0
 40
0.0
 40
1.0
 40
1.0
 40
1.0
 40
2.0
 40
2.0
 40
2.0
 40
3.0
 40
3.0
 40
3.0
 40
3.0
 10
109.2523181395842
 20
172.9966174453736
 30
0.0
 10
108.9291679698874
 20
173.4582605449404
 30
0.0
 10
108.1688348947053
 20
173.7491990506003
 30
0.0
 10
108.4034460520225
 20
174.4538937969914
 30
0.0
 10
108.5057654554339
 20
174.5455333973532
 30
0.0
 10
108.57328937149
 20
174.6935003460576
 30
0.0
 10
108.7247014179524
 20
174.7093477957442
 30
0.0
 10
108.8866210125766
 20
174.6829927978958
 30
0.0
 10
109.0523302147346
 20
174.6874714249812
 30
0.0
 10
109.2101156920492
 20
174.6364839781633
 30
0.0
  0
SPLINE
  5
4A
330
40
100
AcDbEntity
  8
Ebene 9
 62
   250
420
  2301728
370
     9
100
AcDbSpline
210
0.0
220
0.0
230
1.0
 70
     8
 71
     3
 72
     8
 73
     4
 74
     0
 42
0.0000000001
 43
0.0000000001
 40
0.0
 40
0.0
 40
0.0
 40
0.0
 40
1.0
 40
1.0
 40
1.0
 40
1.0
 10
109.2101156920492
 20
174.6364839781633
 30
0.0
 10
109.2538684335753
 20
174.8767795467812
 30
0.0
 10
109.3511924452377
 20
175.0995051168334
 30
0.0
 10
109.3622167580632
 20
175.3461741163034
 30
0.0
  0
SPLINE
  5
4B
330
40
100
AcDbEntity
  8
Ebene 9
 62
   250
420
  2301728
370
     9
100
AcDbSpline
210
0.0
220
0.0
230
1.0
 70
     8
 71
     3
 72
    14
 73
    10
 74
     0
 42
0.0000000001
 43
0.0000000001
 40
0.0
 40
0.0
 40
0.0
 40
0.0
 40
1.0
 40
1.0
 40
1.0
 40
2.0
 40
2.0
 40
2.0
 40
3.0
 40
3.0
 40
3.0
 40
3.0
 10
109.3622167580632
 20
175.3461741163034
 30
0.0
 10
108.8924776787651
 20
175.5969772330831
 30
0.0
 10
108.1576383269919
 20
175.8846428958729
 30
0.0
 10
108.0851190191868
 20
176.4992483358932
 30
0.0
 10
108.1443747006238
 20
176.5726289181378
 30
0.0
 10
108.2306743994607
 20
176.6217215611888
 30
0.0
 10
108.2940641982072
 20
176.6935518494423
 30
0.0
 10
108.710232007369
 20
176.8442748763531
 30
0.0
 10
109.0494018816403
 20
176.5478242142805
 30
0.0
 10
109.4213001846123
 20
176.4789222591212
 30
0.0
  0
SPLINE
  5
4C
330
40
100
AcDbEntity
  8
Ebene 9
 62
   250
420
  2301728
370
     9
100
AcDbSpline
210
0.0
220
0.0
230
1.0
 70
     8
 71
     3
 72
     8
 73
     4
 74
     0
 42
0.0000000001
 43
0.0000000001
 40
0.0
 40
0.0
 40
0.0
 40
0.0
 40
1.0
 40
1.0
 40
1.0
 40
1.0
 10
109.4213001846123
 20
176.4789222591212
 30
0.0
 10
109.4364586147473
 20
176.5533363706932
 30
0.0
 10
109.4355973403078
 20
176.6911402810117
 30
0.0
 10
109.4383534185142
 20
176.8172308589531
 30
0.0
  0
SPLINE
  5
4D
330
40
100
AcDbEntity
  8
Ebene 9
 62
   250
420
  2301728
370
     9
100
AcDbSpline
210
0.0
220
0.0
230
1.0
 70
     8
 71
     3
 72
     8
 73
     4
 74
     0
 42
0.0000000001
 43
0.0000000001
 40
0.0
 40
0.0
 40
0.0
 40
0.0
 40
1.0
 40
1.0
 40
1.0
 40
1.0
 10
109.4383534185142
 20
176.8172308589531
 30
0.0
 10
109.389605285239
 20
177.0265205477493
 30
0.0
 10
109.3022720570747
 20
177.2408056282945
 30
0.0
 10
109.3536040136683
 20
177.4593970810371
 30
0.0
  0
SPLINE
  5
4E
330
40
100
AcDbEntity
  8
Ebene 9
 62
   250
420
  2301728
370
     9
100
AcDbSpline
210
0.0
220
0.0
230
1.0
 70
     8
 71
     3
 72
     8
 73
     4
 74
     0
 42
0.0000000001
 43
0.0000000001
 40
0.0
 40
0.0
 40
0.0
 40
0.0
 40
1.0
 40
1.0
 40
1.0
 40
1.0
 10
109.3536040136683
 20
177.4593970810371
 30
0.0
 10
109.1772150084607
 20
177.5942726582614
 30
0.0
 10
109.2397435327677
 20
177.836635285534
 30
0.0
 10
109.3115738210212
 20
178.0090624283199
 30
0.0
  0
SPLINE
  5
4F
330
40
100
AcDbEntity
  8
Ebene 9
 62
   250
420
  2301728
370
     9
100
AcDbSpline
210
0.0
220
0.0
230
1.0
 70
     8
 71
     3
 72
     8
 73
     4
 74
     0
 42
0.0000000001
 43
0.0000000001
 40
0.0
 40
0.0
 40
0.0
 40
0.0
 40
1.0
 40
1.0
 40
1.0
 40
1.0
 10
109.3115738210212
 20
178.0090624283199
 30
0.0
 10
109.0118503160785
 20
178.5654457162308
 30
0.0
 10
109.6485043817498
 20
179.0748034197454
 30
0.0
 10
109.3875382265842
 20
179.6573694506167
 30
0.0
  0
SPLINE
  5
50
330
40
100
AcDbEntity
  8
Ebene 9
 62
   250
420
  2301728
370
     9
100
AcDbSpline
210
0.0
220
0.0
230
1.0
 70
     8
 71
     3
 72
     8
 73
     4
 74
     0
 42
0.0000000001
 43
0.0000000001
 40
0.0
 40
0.0
 40
0.0
 40
0.0
 40
1.0
 40
1.0
 40
1.0
 40
1.0
 10
109.3875382265842
 20
179.6573694506167
 30
0.0
 10
109.1761814791333
 20
179.7250656215606
 30
0.0
 10
109.0101277671995
 20
179.9114454102664
 30
0.0
 10
108.9308905187664
 20
180.1138449035466
 30
0.0
  0
SPLINE
  5
51
330
40
100
AcDbEntity
  8
Ebene 9
 62
   250
420
  2301728
370
     9
100
AcDbSpline
210
0.0
220
0.0
230
1.0
 70
     8
 71
     3
 72
     8
 73
     4
 74
     0
 42
0.0000000001
 43
0.0000000001
 40
0.0
 40
0.0
 40
0.0
 40
0.0
 40
1.0
 40
1.0
 40
1.0
 40
1.0
 10
134.7796312516409
 20
178.000449683925
 30
0.0
 10
126.6932977941532
 20
176.0934158200053
 30
0.0
 10
117.5488025603076
 20
175.1616891313646
 30
0.0
 10
109.3536040136683
 20
177.4593970810371
 30
0.0
  0
SPLINE
  5
52
330
40
100
AcDbEntity
  8
Ebene 9
 62
   250
420
  2301728
370
     9
100
AcDbSpline
210
0.0
220
0.0
230
1.0
 70
     8
 71
     3
 72
     8
 73
     4
 74
     0
 42
0.0000000001
 43
0.0000000001
 40
0.0
 40
0.0
 40
0.0
 40
0.0
 40
1.0
 40
1.0
 40
1.0
 40
1.0
 10
109.4383534185142
 20
176.8172308589531
 30
0.0
 10
114.1083556843192
 20
175.5291088072512
 30
0.0
 10
119.0339842037649
 20
175.1403295252652
 30
0.0
 10
123.9432485088603
 20
175.1179363898385
 30
0.0
  0
SPLINE
  5
53
330
40
100
AcDbEntity
  8
Ebene 9
 62
   250
420
  2301728
370
     9
100
AcDbSpline
210
0.0
220
0.0
230
1.0
 70
     8
 71
     3
 72
    11
 73
     7
 74
     0
 42
0.0000000001
 43
0.0000000001
 40
0.0
 40
0.0
 40
0.0
 40
0.0
 40
1.0
 40
1.0
 40
1.0
 40
2.0
 40
2.0
 40
2.0
 40
2.0
 10
135.1768510231338
 20
177.0706177990512
 30
0.0
 10
135.2455807234052
 20
177.2156564146614
 30
0.0
 10
135.2564327813428
 20
177.3755089506308
 30
0.0
 10
135.2998410130931
 20
177.5262319775416
 30
0.0
 10
135.2149193533593
 20
177.7727287221238
 30
0.0
 10
134.9966724103924
 20
177.8893452812308
 30
0.0
 10
134.7796312516409
 20
178.000449683925
 30
0.0
  0
SPLINE
  5
54
330
40
100
AcDbEntity
  8
Ebene 9
 62
   250
420
  2301728
370
     9
100
AcDbSpline
210
0.0
220
0.0
230
1.0
 70
     8
 71
     3
 72
     8
 73
     4
 74
     0
 42
0.0000000001
 43
0.0000000001
 40
0.0
 40
0.0
 40
0.0
 40
0.0
 40
1.0
 40
1.0
 40
1.0
 40
1.0
 10
108.8804198366123
 20
181.1112007044765
 30
0.0
 10
108.9848062986785
 20
181.088463059274
 30
0.0
 10
109.06008168469
 20
181.0774387464485
 30
0.0
 10
109.1339790315983
 20
181.0603855125466
 30
0.0
  0
SPLINE
  5
55
330
40
100
AcDbEntity
  8
Ebene 9
 62
   250
420
  2301728
370
     9
100
AcDbSpline
210
0.0
220
0.0
230
1.0
 70
     8
 71
     3
 72
     8
 73
     4
 74
     0
 42
0.0000000001
 43
0.0000000001
 40
0.0
 40
0.0
 40
0.0
 40
0.0
 40
1.0
 40
1.0
 40
1.0
 40
1.0
 10
109.1339790315983
 20
181.0603855125466
 30
0.0
 10
109.3053726450569
 20
181.1427233489619
 30
0.0
 10
109.5160403729562
 20
181.1540921715631
 30
0.0
 10
109.6919126135002
 20
181.0772664915606
 30
0.0
  0
SPLINE
  5
56
330
40
100
AcDbEntity
  8
Ebene 9
 62
   250
420
  2301728
370
     9
100
AcDbSpline
210
0.0
220
0.0
230
1.0
 70
     8
 71
     3
 72
     8
 73
     4
 74
     0
 42
0.0000000001
 43
0.0000000001
 40
0.0
 40
0.0
 40
0.0
 40
0.0
 40
1.0
 40
1.0
 40
1.0
 40
1.0
 10
109.6919126135002
 20
181.0772664915606
 30
0.0
 10
109.906886713597
 20
181.037647867344
 30
0.0
 10
110.1092862068772
 20
180.9913113024995
 30
0.0
 10
110.3001446226683
 20
180.8745224885046
 30
0.0
  0
SPLINE
  5
57
330
40
100
AcDbEntity
  8
Ebene 9
 62
   250
420
  2301728
370
     9
100
AcDbSpline
210
0.0
220
0.0
230
1.0
 70
     8
 71
     3
 72
     8
 73
     4
 74
     0
 42
0.0000000001
 43
0.0000000001
 40
0.0
 40
0.0
 40
0.0
 40
0.0
 40
1.0
 40
1.0
 40
1.0
 40
1.0
 10
110.3001446226683
 20
180.8745224885046
 30
0.0
 10
110.5462968574747
 20
180.807859846888
 30
0.0
 10
110.8189763450173
 20
180.8769340569351
 30
0.0
 10
111.0103515254721
 20
180.6714339756727
 30
0.0
  0
SPLINE
  5
58
330
40
100
AcDbEntity
  8
Ebene 9
 62
   250
420
  2301728
370
     9
100
AcDbSpline
210
0.0
220
0.0
230
1.0
 70
     8
 71
     3
 72
     8
 73
     4
 74
     0
 42
0.0000000001
 43
0.0000000001
 40
0.0
 40
0.0
 40
0.0
 40
0.0
 40
1.0
 40
1.0
 40
1.0
 40
1.0
 10
111.0103515254721
 20
180.6714339756727
 30
0.0
 10
111.2249811157931
 20
180.7802990648243
 30
0.0
 10
111.4406442354415
 20
180.6059771182715
 30
0.0
 10
111.6445940227129
 20
180.5446543781797
 30
0.0
  0
SPLINE
  5
59
330
40
100
AcDbEntity
  8
Ebene 9
 62
   250
420
  2301728
370
     9
100
AcDbSpline
210
0.0
220
0.0
230
1.0
 70
     8
 71
     3
 72
     8
 73
     4
 74
     0
 42
0.0000000001
 43
0.0000000001
 40
0.0
 40
0.0
 40
0.0
 40
0.0
 40
1.0
 40
1.0
 40
1.0
 40
1.0
 10
111.6445940227129
 20
180.5446543781797
 30
0.0
 10
111.8917797868466
 20
180.4821258538727
 30
0.0
 10
112.2026998595026
 20
180.6132118235632
 30
0.0
 10
112.3966588632759
 20
180.4011660565606
 30
0.0
  0
SPLINE
  5
5A
330
40
100
AcDbEntity
  8
Ebene 9
 62
   250
420
  2301728
370
     9
100
AcDbSpline
210
0.0
220
0.0
230
1.0
 70
     8
 71
     3
 72
     8
 73
     4
 74
     0
 42
0.0000000001
 43
0.0000000001
 40
0.0
 40
0.0
 40
0.0
 40
0.0
 40
1.0
 40
1.0
 40
1.0
 40
1.0
 10
112.3966588632759
 20
180.4011660565606
 30
0.0
 10
112.7256656991612
 20
180.4425072296562
 30
0.0
 10
113.0081637153141
 20
180.2828269485746
 30
0.0
 10
113.3431994722759
 20
180.2657737146727
 30
0.0
  0
SPLINE
  5
5B
330
40
100
AcDbEntity
  8
Ebene 9
 62
   250
420
  2301728
370
     9
100
AcDbSpline
210
0.0
220
0.0
230
1.0
 70
     8
 71
     3
 72
     8
 73
     4
 74
     0
 42
0.0000000001
 43
0.0000000001
 40
0.0
 40
0.0
 40
0.0
 40
0.0
 40
1.0
 40
1.0
 40
1.0
 40
1.0
 10
113.3431994722759
 20
180.2657737146727
 30
0.0
 10
113.665832877309
 20
180.2116856798727
 30
0.0
 10
113.986915988351
 20
180.1668994090192
 30
0.0
 10
114.3069655700656
 20
180.0885234350256
 30
0.0
  0
SPLINE
  5
5C
330
40
100
AcDbEntity
  8
Ebene 9
 62
   250
420
  2301728
370
     9
100
AcDbSpline
210
0.0
220
0.0
230
1.0
 70
     8
 71
     3
 72
     8
 73
     4
 74
     0
 42
0.0000000001
 43
0.0000000001
 40
0.0
 40
0.0
 40
0.0
 40
0.0
 40
1.0
 40
1.0
 40
1.0
 40
1.0
 10
114.3069655700656
 20
180.0885234350256
 30
0.0
 10
114.635972405951
 20
180.0781881417517
 30
0.0
 10
114.9754867899981
 20
180.0058410888345
 30
0.0
 10
115.3212023500096
 20
179.9446906036307
 30
0.0
  0
SPLINE
  5
5D
330
40
100
AcDbEntity
  8
Ebene 9
 62
   250
420
  2301728
370
     9
100
AcDbSpline
210
0.0
220
0.0
230
1.0
 70
     8
 71
     3
 72
     8
 73
     4
 74
     0
 42
0.0000000001
 43
0.0000000001
 40
0.0
 40
0.0
 40
0.0
 40
0.0
 40
1.0
 40
1.0
 40
1.0
 40
1.0
 10
115.3212023500096
 20
179.9446906036307
 30
0.0
 10
115.9974750398974
 20
179.942451290088
 30
0.0
 10
116.6703026320274
 20
179.7910392436256
 30
0.0
 10
117.3500204196732
 20
179.7841490481097
 30
0.0
  0
SPLINE
  5
5E
330
40
100
AcDbEntity
  8
Ebene 9
 62
   250
420
  2301728
370
     9
100
AcDbSpline
210
0.0
220
0.0
230
1.0
 70
     8
 71
     3
 72
     8
 73
     4
 74
     0
 42
0.0000000001
 43
0.0000000001
 40
0.0
 40
0.0
 40
0.0
 40
0.0
 40
1.0
 40
1.0
 40
1.0
 40
1.0
 10
117.3500204196732
 20
179.7841490481097
 30
0.0
 10
117.6182212801305
 20
179.8420266904434
 30
0.0
 10
117.8974464534133
 20
179.8046473797696
 30
0.0
 10
118.1615131965611
 20
179.7417743456868
 30
0.0
  0
SPLINE
  5
5F
330
40
100
AcDbEntity
  8
Ebene 9
 62
   250
420
  2301728
370
     9
100
AcDbSpline
210
0.0
220
0.0
230
1.0
 70
     8
 71
     3
 72
     8
 73
     4
 74
     0
 42
0.0000000001
 43
0.0000000001
 40
0.0
 40
0.0
 40
0.0
 40
0.0
 40
1.0
 40
1.0
 40
1.0
 40
1.0
 10
118.1615131965611
 20
179.7417743456868
 30
0.0
 10
118.4939651302044
 20
179.7169696418295
 30
0.0
 10
118.8369246120095
 20
179.6956100357301
 30
0.0
 10
119.1759222313929
 20
179.707667877883
 30
0.0
  0
SPLINE
  5
60
330
40
100
AcDbEntity
  8
Ebene 9
 62
   250
420
  2301728
370
     9
100
AcDbSpline
210
0.0
220
0.0
230
1.0
 70
     8
 71
     3
 72
     8
 73
     4
 74
     0
 42
0.0000000001
 43
0.0000000001
 40
0.0
 40
0.0
 40
0.0
 40
0.0
 40
1.0
 40
1.0
 40
1.0
 40
1.0
 10
119.1759222313929
 20
179.707667877883
 30
0.0
 10
119.4453288760655
 20
179.6925094477479
 30
0.0
 10
119.7221424809177
 20
179.7393627772562
 30
0.0
 10
119.9872427533929
 20
179.6823464093619
 30
0.0
  0
SPLINE
  5
61
330
40
100
AcDbEntity
  8
Ebene 9
 62
   250
420
  2301728
370
     9
100
AcDbSpline
210
0.0
220
0.0
230
1.0
 70
     8
 71
     3
 72
     8
 73
     4
 74
     0
 42
0.0000000001
 43
0.0000000001
 40
0.0
 40
0.0
 40
0.0
 40
0.0
 40
1.0
 40
1.0
 40
1.0
 40
1.0
 10
119.9872427533929
 20
179.6823464093619
 30
0.0
 10
120.2184088129521
 20
179.7192089553721
 30
0.0
 10
120.4664558515253
 20
179.726099150888
 30
0.0
 10
120.6971051464209
 20
179.6823464093619
 30
0.0
  0
SPLINE
  5
62
330
40
100
AcDbEntity
  8
Ebene 9
 62
   250
420
  2301728
370
     9
100
AcDbSpline
210
0.0
220
0.0
230
1.0
 70
     8
 71
     3
 72
    20
 73
    16
 74
     0
 42
0.0000000001
 43
0.0000000001
 40
0.0
 40
0.0
 40
0.0
 40
0.0
 40
1.0
 40
1.0
 40
1.0
 40
2.0
 40
2.0
 40
2.0
 40
3.0
 40
3.0
 40
3.0
 40
4.0
 40
4.0
 40
4.0
 40
5.0
 40
5.0
 40
5.0
 40
5.0
 10
134.4414949066969
 20
181.3816408784765
 30
0.0
 10
134.5126361753989
 20
181.4069623469975
 30
0.0
 10
134.57154734706
 20
181.421431757581
 30
0.0
 10
134.6294249893938
 20
181.4350398937249
 30
0.0
 10
133.3476763685441
 20
183.4407758084102
 30
0.0
 10
130.4177929802856
 20
183.4704036491287
 30
0.0
 10
127.7833267247723
 20
183.637146380614
 30
0.0
 10
126.8815723866258
 20
183.6945072582841
 30
0.0
 10
125.5217923015583
 20
183.6397302039325
 30
0.0
 10
124.1506433938896
 20
183.5735843269796
 30
0.0
 10
119.4077773105037
 20
183.3450020907389
 30
0.0
 10
113.2923842803459
 20
184.3463197540905
 30
0.0
 10
110.2031651207817
 20
182.5565914688294
 30
0.0
 10
109.4743546900849
 20
182.1342224837033
 30
0.0
 10
109.097288740476
 20
181.8062491771453
 30
0.0
 10
108.8804198366123
 20
181.1112007044765
 30
0.0
  0
SPLINE
  5
63
330
40
100
AcDbEntity
  8
Ebene 9
 62
   250
420
  2301728
370
     9
100
AcDbSpline
210
0.0
220
0.0
230
1.0
 70
     8
 71
     3
 72
     8
 73
     4
 74
     0
 42
0.0000000001
 43
0.0000000001
 40
0.0
 40
0.0
 40
0.0
 40
0.0
 40
1.0
 40
1.0
 40
1.0
 40
1.0
 10
134.6950541016829
 20
179.7755363037148
 30
0.0
 10
134.7012552776472
 20
180.3226178276791
 30
0.0
 10
134.5780930328001
 20
180.8562634703874
 30
0.0
 10
134.4414949066969
 20
181.3816408784765
 30
0.0
  0
SPLINE
  5
64
330
40
100
AcDbEntity
  8
Ebene 9
 62
   250
420
  2301728
370
     9
100
AcDbSpline
210
0.0
220
0.0
230
1.0
 70
     8
 71
     3
 72
     8
 73
     4
 74
     0
 42
0.0000000001
 43
0.0000000001
 40
0.0
 40
0.0
 40
0.0
 40
0.0
 40
1.0
 40
1.0
 40
1.0
 40
1.0
 10
134.4414949066969
 20
181.3816408784765
 30
0.0
 10
134.2327219825644
 20
181.3325482354256
 30
0.0
 10
134.0206762155619
 20
181.2939631405364
 30
0.0
 10
133.8330906426409
 20
181.1787246205326
 30
0.0
  0
SPLINE
  5
65
330
40
100
AcDbEntity
  8
Ebene 9
 62
   250
420
  2301728
370
     9
100
AcDbSpline
210
0.0
220
0.0
230
1.0
 70
     8
 71
     3
 72
     8
 73
     4
 74
     0
 42
0.0000000001
 43
0.0000000001
 40
0.0
 40
0.0
 40
0.0
 40
0.0
 40
1.0
 40
1.0
 40
1.0
 40
1.0
 10
109.3875382265842
 20
179.6573694506167
 30
0.0
 10
109.4383534185142
 20
179.6823464093619
 30
0.0
 10
109.4888241006683
 20
179.707667877883
 30
0.0
 10
109.5394670377104
 20
179.7333338561798
 30
0.0
  0
SPLINE
  5
66
330
40
100
AcDbEntity
  8
Ebene 9
 62
   250
420
  2301728
370
     9
100
AcDbSpline
210
0.0
220
0.0
230
1.0
 70
     8
 71
     3
 72
     8
 73
     4
 74
     0
 42
0.0000000001
 43
0.0000000001
 40
0.0
 40
0.0
 40
0.0
 40
0.0
 40
1.0
 40
1.0
 40
1.0
 40
1.0
 10
109.5394670377104
 20
179.7333338561798
 30
0.0
 10
109.5175906669473
 20
180.1913596031008
 30
0.0
 10
109.6462650682072
 20
180.6280257439224
 30
0.0
 10
109.6919126135002
 20
181.0772664915606
 30
0.0
  0
SPLINE
  5
67
330
40
100
AcDbEntity
  8
Ebene 9
 62
   250
420
  2301728
370
     9
100
AcDbSpline
210
0.0
220
0.0
230
1.0
 70
     8
 71
     3
 72
     8
 73
     4
 74
     0
 42
0.0000000001
 43
0.0000000001
 40
0.0
 40
0.0
 40
0.0
 40
0.0
 40
1.0
 40
1.0
 40
1.0
 40
1.0
 10
134.1627864980778
 20
179.6320479820957
 30
0.0
 10
133.9750286702689
 20
180.1245247065963
 30
0.0
 10
134.0044842560995
 20
180.6753958380944
 30
0.0
 10
133.8330906426409
 20
181.1787246205326
 30
0.0
  0
SPLINE
  5
68
330
40
100
AcDbEntity
  8
Ebene 9
 62
   250
420
  2301728
370
     9
100
AcDbSpline
210
0.0
220
0.0
230
1.0
 70
     8
 71
     3
 72
     8
 73
     4
 74
     0
 42
0.0000000001
 43
0.0000000001
 40
0.0
 40
0.0
 40
0.0
 40
0.0
 40
1.0
 40
1.0
 40
1.0
 40
1.0
 10
133.8330906426409
 20
181.1787246205326
 30
0.0
 10
133.6422322268498
 20
181.0679647276141
 30
0.0
 10
133.4000418544651
 20
181.0784722757759
 30
0.0
 10
133.249835592218
 20
180.9251654255466
 30
0.0
  0
SPLINE
  5
69
330
40
100
AcDbEntity
  8
Ebene 9
 62
   250
420
  2301728
370
     9
100
AcDbSpline
210
0.0
220
0.0
230
1.0
 70
     8
 71
     3
 72
     8
 73
     4
 74
     0
 42
0.0000000001
 43
0.0000000001
 40
0.0
 40
0.0
 40
0.0
 40
0.0
 40
1.0
 40
1.0
 40
1.0
 40
1.0
 10
108.9308905187664
 20
180.1138449035466
 30
0.0
 10
109.0550862929409
 20
180.4161522318078
 30
0.0
 10
109.0874702118658
 20
180.738613381953
 30
0.0
 10
109.1339790315983
 20
181.0603855125466
 30
0.0
  0
SPLINE
  5
6A
330
40
100
AcDbEntity
  8
Ebene 9
 62
   250
420
  2301728
370
     9
100
AcDbSpline
210
0.0
220
0.0
230
1.0
 70
     8
 71
     3
 72
     8
 73
     4
 74
     0
 42
0.0000000001
 43
0.0000000001
 40
0.0
 40
0.0
 40
0.0
 40
0.0
 40
1.0
 40
1.0
 40
1.0
 40
1.0
 10
108.8804198366123
 20
181.1112007044765
 30
0.0
 10
108.4473710484365
 20
180.9239596413313
 30
0.0
 10
108.6380572093397
 20
180.3386375322536
 30
0.0
 10
108.9308905187664
 20
180.1138449035466
 30
0.0
  0
SPLINE
  5
6B
330
40
100
AcDbEntity
  8
Ebene 9
 62
   250
420
  2301728
370
     9
100
AcDbSpline
210
0.0
220
0.0
230
1.0
 70
     8
 71
     3
 72
     8
 73
     4
 74
     0
 42
0.0000000001
 43
0.0000000001
 40
0.0
 40
0.0
 40
0.0
 40
0.0
 40
1.0
 40
1.0
 40
1.0
 40
1.0
 10
109.5394670377104
 20
179.7333338561798
 30
0.0
 10
109.7752839792428
 20
179.7347118952829
 30
0.0
 10
109.935653279876
 20
179.5552223020931
 30
0.0
 10
110.1821500244581
 20
179.6063820037989
 30
0.0
  0
SPLINE
  5
6C
330
40
100
AcDbEntity
  8
Ebene 9
 62
   250
420
  2301728
370
     9
100
AcDbSpline
210
0.0
220
0.0
230
1.0
 70
     8
 71
     3
 72
     8
 73
     4
 74
     0
 42
0.0000000001
 43
0.0000000001
 40
0.0
 40
0.0
 40
0.0
 40
0.0
 40
1.0
 40
1.0
 40
1.0
 40
1.0
 10
110.1821500244581
 20
179.6063820037989
 30
0.0
 10
110.2629375668823
 20
180.0246168716154
 30
0.0
 10
110.207643747867
 20
180.4619720319887
 30
0.0
 10
110.3001446226683
 20
180.8745224885046
 30
0.0
  0
SPLINE
  5
6D
330
40
100
AcDbEntity
  8
Ebene 9
 62
   250
420
  2301728
370
     9
100
AcDbSpline
210
0.0
220
0.0
230
1.0
 70
     8
 71
     3
 72
     8
 73
     4
 74
     0
 42
0.0000000001
 43
0.0000000001
 40
0.0
 40
0.0
 40
0.0
 40
0.0
 40
1.0
 40
1.0
 40
1.0
 40
1.0
 10
133.5288885106129
 20
179.3529950637008
 30
0.0
 10
133.3316566639696
 20
179.85460129726
 30
0.0
 10
133.3414751925798
 20
180.3994435076816
 30
0.0
 10
133.249835592218
 20
180.9251654255466
 30
0.0
  0
SPLINE
  5
6E
330
40
100
AcDbEntity
  8
Ebene 9
 62
   250
420
  2301728
370
     9
100
AcDbSpline
210
0.0
220
0.0
230
1.0
 70
     8
 71
     3
 72
     8
 73
     4
 74
     0
 42
0.0000000001
 43
0.0000000001
 40
0.0
 40
0.0
 40
0.0
 40
0.0
 40
1.0
 40
1.0
 40
1.0
 40
1.0
 10
133.249835592218
 20
180.9251654255466
 30
0.0
 10
133.018152767995
 20
180.9442857181033
 30
0.0
 10
132.8477926838638
 20
180.7935626911925
 30
0.0
 10
132.6155930949772
 20
180.7727198497568
 30
0.0
  0
SPLINE
  5
6F
330
40
100
AcDbEntity
  8
Ebene 9
 62
   250
420
  2301728
370
     9
100
AcDbSpline
210
0.0
220
0.0
230
1.0
 70
     8
 71
     3
 72
     8
 73
     4
 74
     0
 42
0.0000000001
 43
0.0000000001
 40
0.0
 40
0.0
 40
0.0
 40
0.0
 40
1.0
 40
1.0
 40
1.0
 40
1.0
 10
110.1821500244581
 20
179.6063820037989
 30
0.0
 10
110.3623286371995
 20
179.4604821137492
 30
0.0
 10
110.6574012601689
 20
179.4775353476511
 30
0.0
 10
110.883744182867
 20
179.4796024063059
 30
0.0
  0
SPLINE
  5
70
330
40
100
AcDbEntity
  8
Ebene 9
 62
   250
420
  2301728
370
     9
100
AcDbSpline
210
0.0
220
0.0
230
1.0
 70
     8
 71
     3
 72
     8
 73
     4
 74
     0
 42
0.0000000001
 43
0.0000000001
 40
0.0
 40
0.0
 40
0.0
 40
0.0
 40
1.0
 40
1.0
 40
1.0
 40
1.0
 10
110.883744182867
 20
179.4796024063059
 30
0.0
 10
111.0570326000925
 20
179.8552903168116
 30
0.0
 10
110.8716863407141
 20
180.2898893989785
 30
0.0
 10
111.0103515254721
 20
180.6714339756727
 30
0.0
  0
SPLINE
  5
71
330
40
100
AcDbEntity
  8
Ebene 9
 62
   250
420
  2301728
370
     9
100
AcDbSpline
210
0.0
220
0.0
230
1.0
 70
     8
 71
     3
 72
     8
 73
     4
 74
     0
 42
0.0000000001
 43
0.0000000001
 40
0.0
 40
0.0
 40
0.0
 40
0.0
 40
1.0
 40
1.0
 40
1.0
 40
1.0
 10
110.883744182867
 20
179.4796024063059
 30
0.0
 10
111.020686818746
 20
179.2351727203785
 30
0.0
 10
111.3088692461995
 20
179.3529950637008
 30
0.0
 10
111.517642170332
 20
179.2515369347288
 30
0.0
  0
SPLINE
  5
72
330
40
100
AcDbEntity
  8
Ebene 9
 62
   250
420
  2301728
370
     9
100
AcDbSpline
210
0.0
220
0.0
230
1.0
 70
     8
 71
     3
 72
     8
 73
     4
 74
     0
 42
0.0000000001
 43
0.0000000001
 40
0.0
 40
0.0
 40
0.0
 40
0.0
 40
1.0
 40
1.0
 40
1.0
 40
1.0
 10
111.517642170332
 20
179.2515369347288
 30
0.0
 10
111.6196170639676
 20
179.6723556258638
 30
0.0
 10
111.5977406932046
 20
180.1147061779861
 30
0.0
 10
111.6445940227129
 20
180.5446543781797
 30
0.0
  0
SPLINE
  5
73
330
40
100
AcDbEntity
  8
Ebene 9
 62
   250
420
  2301728
370
     9
100
AcDbSpline
210
0.0
220
0.0
230
1.0
 70
     8
 71
     3
 72
     8
 73
     4
 74
     0
 42
0.0000000001
 43
0.0000000001
 40
0.0
 40
0.0
 40
0.0
 40
0.0
 40
1.0
 40
1.0
 40
1.0
 40
1.0
 10
132.920139736781
 20
179.2515369347288
 30
0.0
 10
132.7127448517518
 20
179.7219650335785
 30
0.0
 10
132.7837138655658
 20
180.2802431252562
 30
0.0
 10
132.6155930949772
 20
180.7727198497568
 30
0.0
  0
SPLINE
  5
74
330
40
100
AcDbEntity
  8
Ebene 9
 62
   250
420
  2301728
370
     9
100
AcDbSpline
210
0.0
220
0.0
230
1.0
 70
     8
 71
     3
 72
     8
 73
     4
 74
     0
 42
0.0000000001
 43
0.0000000001
 40
0.0
 40
0.0
 40
0.0
 40
0.0
 40
1.0
 40
1.0
 40
1.0
 40
1.0
 10
132.6155930949772
 20
180.7727198497568
 30
0.0
 10
132.384427035418
 20
180.6790131907402
 30
0.0
 10
132.1439592119123
 20
180.635432704102
 30
0.0
 10
131.9055584470613
 20
180.5701481015886
 30
0.0
  0
SPLINE
  5
75
330
40
100
AcDbEntity
  8
Ebene 9
 62
   250
420
  2301728
370
     9
100
AcDbSpline
210
0.0
220
0.0
230
1.0
 70
     8
 71
     3
 72
     8
 73
     4
 74
     0
 42
0.0000000001
 43
0.0000000001
 40
0.0
 40
0.0
 40
0.0
 40
0.0
 40
1.0
 40
1.0
 40
1.0
 40
1.0
 10
111.517642170332
 20
179.2515369347288
 30
0.0
 10
111.7484637201154
 20
179.1366429245008
 30
0.0
 10
111.9927211511549
 20
179.0677409693416
 30
0.0
 10
112.2529982867689
 20
179.0994358687148
 30
0.0
  0
SPLINE
  5
76
330
40
100
AcDbEntity
  8
Ebene 9
 62
   250
420
  2301728
370
     9
100
AcDbSpline
210
0.0
220
0.0
230
1.0
 70
     8
 71
     3
 72
     8
 73
     4
 74
     0
 42
0.0000000001
 43
0.0000000001
 40
0.0
 40
0.0
 40
0.0
 40
0.0
 40
1.0
 40
1.0
 40
1.0
 40
1.0
 10
112.2529982867689
 20
179.0994358687148
 30
0.0
 10
112.3484274946644
 20
179.5271447553658
 30
0.0
 10
112.4018265099128
 20
179.9448628585186
 30
0.0
 10
112.3966588632759
 20
180.4011660565606
 30
0.0
  0
SPLINE
  5
77
330
40
100
AcDbEntity
  8
Ebene 9
 62
   250
420
  2301728
370
     9
100
AcDbSpline
210
0.0
220
0.0
230
1.0
 70
     8
 71
     3
 72
     8
 73
     4
 74
     0
 42
0.0000000001
 43
0.0000000001
 40
0.0
 40
0.0
 40
0.0
 40
0.0
 40
1.0
 40
1.0
 40
1.0
 40
1.0
 10
132.1088192147811
 20
179.0486206767849
 30
0.0
 10
131.9696372653594
 20
179.5409251463976
 30
0.0
 10
131.8816150176435
 20
180.0451152032753
 30
0.0
 10
131.9055584470613
 20
180.5701481015886
 30
0.0
  0
SPLINE
  5
78
330
40
100
AcDbEntity
  8
Ebene 9
 62
   250
420
  2301728
370
     9
100
AcDbSpline
210
0.0
220
0.0
230
1.0
 70
     8
 71
     3
 72
     8
 73
     4
 74
     0
 42
0.0000000001
 43
0.0000000001
 40
0.0
 40
0.0
 40
0.0
 40
0.0
 40
1.0
 40
1.0
 40
1.0
 40
1.0
 10
131.9055584470613
 20
180.5701481015886
 30
0.0
 10
131.4008516255199
 20
180.3720549805059
 30
0.0
 10
130.8425735338423
 20
180.4617997771008
 30
0.0
 10
130.3335603401034
 20
180.2910951831938
 30
0.0
  0
SPLINE
  5
79
330
40
100
AcDbEntity
  8
Ebene 9
 62
   250
420
  2301728
370
     9
100
AcDbSpline
210
0.0
220
0.0
230
1.0
 70
     8
 71
     3
 72
    11
 73
     7
 74
     0
 42
0.0000000001
 43
0.0000000001
 40
0.0
 40
0.0
 40
0.0
 40
0.0
 40
1.0
 40
1.0
 40
1.0
 40
2.0
 40
2.0
 40
2.0
 40
2.0
 10
112.2529982867689
 20
179.0994358687148
 30
0.0
 10
112.2659174033612
 20
179.0780762626154
 30
0.0
 10
112.2791810297294
 20
179.0563721467403
 30
0.0
 10
112.2922724012096
 20
179.0351847955288
 30
0.0
 10
112.5744259075867
 20
179.0005615630613
 30
0.0
 10
112.8479666695689
 20
178.7957505013505
 30
0.0
 10
113.1406277241077
 20
178.9473348027008
 30
0.0
  0
SPLINE
  5
7A
330
40
100
AcDbEntity
  8
Ebene 9
 62
   250
420
  2301728
370
     9
100
AcDbSpline
210
0.0
220
0.0
230
1.0
 70
     8
 71
     3
 72
     8
 73
     4
 74
     0
 42
0.0000000001
 43
0.0000000001
 40
0.0
 40
0.0
 40
0.0
 40
0.0
 40
1.0
 40
1.0
 40
1.0
 40
1.0
 10
113.1406277241077
 20
178.9473348027008
 30
0.0
 10
113.2079793852759
 20
179.3962310405632
 30
0.0
 10
113.2906617314669
 20
179.815671692595
 30
0.0
 10
113.3431994722759
 20
180.2657737146727
 30
0.0
  0
SPLINE
  5
7B
330
40
100
AcDbEntity
  8
Ebene 9
 62
   250
420
  2301728
370
     9
100
AcDbSpline
210
0.0
220
0.0
230
1.0
 70
     8
 71
     3
 72
     8
 73
     4
 74
     0
 42
0.0000000001
 43
0.0000000001
 40
0.0
 40
0.0
 40
0.0
 40
0.0
 40
1.0
 40
1.0
 40
1.0
 40
1.0
 10
130.4346739592996
 20
178.820210695432
 30
0.0
 10
130.4920348369697
 20
179.3252620267492
 30
0.0
 10
130.2579404443161
 20
179.7829432638944
 30
0.0
 10
130.3335603401034
 20
180.2910951831938
 30
0.0
  0
SPLINE
  5
7C
330
40
100
AcDbEntity
  8
Ebene 9
 62
   250
420
  2301728
370
     9
100
AcDbSpline
210
0.0
220
0.0
230
1.0
 70
     8
 71
     3
 72
     8
 73
     4
 74
     0
 42
0.0000000001
 43
0.0000000001
 40
0.0
 40
0.0
 40
0.0
 40
0.0
 40
1.0
 40
1.0
 40
1.0
 40
1.0
 10
130.3335603401034
 20
180.2910951831938
 30
0.0
 10
130.0763837924716
 20
180.3548294917161
 30
0.0
 10
129.8250639110283
 20
180.2011781317109
 30
0.0
 10
129.5728827551455
 20
180.1643155857008
 30
0.0
  0
SPLINE
  5
7D
330
40
100
AcDbEntity
  8
Ebene 9
 62
   250
420
  2301728
370
     9
100
AcDbSpline
210
0.0
220
0.0
230
1.0
 70
     8
 71
     3
 72
     8
 73
     4
 74
     0
 42
0.0000000001
 43
0.0000000001
 40
0.0
 40
0.0
 40
0.0
 40
0.0
 40
1.0
 40
1.0
 40
1.0
 40
1.0
 10
113.1406277241077
 20
178.9473348027008
 30
0.0
 10
113.4386286801714
 20
178.7111733513925
 30
0.0
 10
113.8262021779421
 20
178.8627576527428
 30
0.0
 10
114.1546922491637
 20
178.744246289869
 30
0.0
  0
SPLINE
  5
7E
330
40
100
AcDbEntity
  8
Ebene 9
 62
   250
420
  2301728
370
     9
100
AcDbSpline
210
0.0
220
0.0
230
1.0
 70
     8
 71
     3
 72
     8
 73
     4
 74
     0
 42
0.0000000001
 43
0.0000000001
 40
0.0
 40
0.0
 40
0.0
 40
0.0
 40
1.0
 40
1.0
 40
1.0
 40
1.0
 10
114.1546922491637
 20
178.744246289869
 30
0.0
 10
114.2251444983141
 20
179.1909032141887
 30
0.0
 10
114.3579530168835
 20
179.6239520023645
 30
0.0
 10
114.3069655700656
 20
180.0885234350256
 30
0.0
  0
SPLINE
  5
7F
330
40
100
AcDbEntity
  8
Ebene 9
 62
   250
420
  2301728
370
     9
100
AcDbSpline
210
0.0
220
0.0
230
1.0
 70
     8
 71
     3
 72
     8
 73
     4
 74
     0
 42
0.0000000001
 43
0.0000000001
 40
0.0
 40
0.0
 40
0.0
 40
0.0
 40
1.0
 40
1.0
 40
1.0
 40
1.0
 10
114.1546922491637
 20
178.744246289869
 30
0.0
 10
114.4936898685472
 20
178.6588078654715
 30
0.0
 10
114.8723061121472
 20
178.6834403144409
 30
0.0
 10
115.2199164759255
 20
178.7190970762358
 30
0.0
  0
SPLINE
  5
80
330
40
100
AcDbEntity
  8
Ebene 9
 62
   250
420
  2301728
370
     9
100
AcDbSpline
210
0.0
220
0.0
230
1.0
 70
     8
 71
     3
 72
     8
 73
     4
 74
     0
 42
0.0000000001
 43
0.0000000001
 40
0.0
 40
0.0
 40
0.0
 40
0.0
 40
1.0
 40
1.0
 40
1.0
 40
1.0
 10
115.2199164759255
 20
178.7190970762358
 30
0.0
 10
115.2011406931446
 20
179.134575865846
 30
0.0
 10
115.2231893187955
 20
179.5428199501645
 30
0.0
 10
115.3212023500096
 20
179.9446906036307
 30
0.0
  0
SPLINE
  5
81
330
40
100
AcDbEntity
  8
Ebene 9
 62
   250
420
  2301728
370
     9
100
AcDbSpline
210
0.0
220
0.0
230
1.0
 70
     8
 71
     3
 72
     8
 73
     4
 74
     0
 42
0.0000000001
 43
0.0000000001
 40
0.0
 40
0.0
 40
0.0
 40
0.0
 40
1.0
 40
1.0
 40
1.0
 40
1.0
 10
129.6235256921875
 20
178.7190970762358
 30
0.0
 10
129.5942423612448
 20
179.198826939032
 30
0.0
 10
129.6846761773913
 20
179.6962990552817
 30
0.0
 10
129.5728827551455
 20
180.1643155857008
 30
0.0
  0
SPLINE
  5
82
330
40
100
AcDbEntity
  8
Ebene 9
 62
   250
420
  2301728
370
     9
100
AcDbSpline
210
0.0
220
0.0
230
1.0
 70
     8
 71
     3
 72
     8
 73
     4
 74
     0
 42
0.0000000001
 43
0.0000000001
 40
0.0
 40
0.0
 40
0.0
 40
0.0
 40
1.0
 40
1.0
 40
1.0
 40
1.0
 10
129.5728827551455
 20
180.1643155857008
 30
0.0
 10
129.3256969910117
 20
180.0857673568192
 30
0.0
 10
129.0464718177289
 20
180.1234911772689
 30
0.0
 10
128.8122051701875
 20
179.9867207962778
 30
0.0
  0
SPLINE
  5
83
330
40
100
AcDbEntity
  8
Ebene 9
 62
   250
420
  2301728
370
     9
100
AcDbSpline
210
0.0
220
0.0
230
1.0
 70
    24
 71
     3
 72
     8
 73
     4
 74
     0
 42
0.0000000001
 43
0.0000000001
 40
0.0
 40
0.0
 40
0.0
 40
0.0
 40
1.0
 40
1.0
 40
1.0
 40
1.0
 10
128.8122051701875
 20
178.6176389472639
 30
0.0
 10
128.8122051701875
 20
179.0741144001938
 30
0.0
 10
128.8122051701875
 20
179.5304175982358
 30
0.0
 10
128.8122051701875
 20
179.9867207962778
 30
0.0
  0
SPLINE
  5
84
330
40
100
AcDbEntity
  8
Ebene 9
 62
   250
420
  2301728
370
     9
100
AcDbSpline
210
0.0
220
0.0
230
1.0
 70
     8
 71
     3
 72
     8
 73
     4
 74
     0
 42
0.0000000001
 43
0.0000000001
 40
0.0
 40
0.0
 40
0.0
 40
0.0
 40
1.0
 40
1.0
 40
1.0
 40
1.0
 10
128.8122051701875
 20
179.9867207962778
 30
0.0
 10
128.4435797100856
 20
180.0251336362791
 30
0.0
 10
128.0591068002971
 20
179.9641554059632
 30
0.0
 10
127.6961657514958
 20
179.8856071770817
 30
0.0
  0
SPLINE
  5
85
330
40
100
AcDbEntity
  8
Ebene 9
 62
   250
420
  2301728
370
     9
100
AcDbSpline
210
0.0
220
0.0
230
1.0
 70
     8
 71
     3
 72
     8
 73
     4
 74
     0
 42
0.0000000001
 43
0.0000000001
 40
0.0
 40
0.0
 40
0.0
 40
0.0
 40
1.0
 40
1.0
 40
1.0
 40
1.0
 10
115.2199164759255
 20
178.7190970762358
 30
0.0
 10
115.923922202765
 20
178.6779281580282
 30
0.0
 10
116.6461869477216
 20
178.6760333542613
 30
0.0
 10
117.3500204196732
 20
178.7190970762358
 30
0.0
  0
SPLINE
  5
86
330
40
100
AcDbEntity
  8
Ebene 9
 62
   250
420
  2301728
370
     9
100
AcDbSpline
210
0.0
220
0.0
230
1.0
 70
    24
 71
     3
 72
     8
 73
     4
 74
     0
 42
0.0000000001
 43
0.0000000001
 40
0.0
 40
0.0
 40
0.0
 40
0.0
 40
1.0
 40
1.0
 40
1.0
 40
1.0
 10
117.3500204196732
 20
178.7190970762358
 30
0.0
 10
117.3500204196732
 20
179.0741144001938
 30
0.0
 10
117.3500204196732
 20
179.4289594692638
 30
0.0
 10
117.3500204196732
 20
179.7841490481097
 30
0.0
  0
SPLINE
  5
87
330
40
100
AcDbEntity
  8
Ebene 9
 62
   250
420
  2301728
370
     9
100
AcDbSpline
210
0.0
220
0.0
230
1.0
 70
     8
 71
     3
 72
     8
 73
     4
 74
     0
 42
0.0000000001
 43
0.0000000001
 40
0.0
 40
0.0
 40
0.0
 40
0.0
 40
1.0
 40
1.0
 40
1.0
 40
1.0
 10
127.8482668175099
 20
178.6429604157849
 30
0.0
 10
127.7580052562513
 20
179.0546495978613
 30
0.0
 10
127.8422378964334
 20
179.484425543167
 30
0.0
 10
127.6961657514958
 20
179.8856071770817
 30
0.0
  0
SPLINE
  5
88
330
40
100
AcDbEntity
  8
Ebene 9
 62
   250
420
  2301728
370
     9
100
AcDbSpline
210
0.0
220
0.0
230
1.0
 70
     8
 71
     3
 72
     8
 73
     4
 74
     0
 42
0.0000000001
 43
0.0000000001
 40
0.0
 40
0.0
 40
0.0
 40
0.0
 40
1.0
 40
1.0
 40
1.0
 40
1.0
 10
127.6961657514958
 20
179.8856071770817
 30
0.0
 10
127.4150457744462
 20
179.9167853117912
 30
0.0
 10
127.1079153093239
 20
179.9484802111645
 30
0.0
 10
126.8342022924538
 20
179.8601134536727
 30
0.0
  0
SPLINE
  5
89
330
40
100
AcDbEntity
  8
Ebene 9
 62
   250
420
  2301728
370
     9
100
AcDbSpline
210
0.0
220
0.0
230
1.0
 70
     8
 71
     3
 72
     8
 73
     4
 74
     0
 42
0.0000000001
 43
0.0000000001
 40
0.0
 40
0.0
 40
0.0
 40
0.0
 40
1.0
 40
1.0
 40
1.0
 40
1.0
 10
117.3500204196732
 20
178.7190970762358
 30
0.0
 10
117.5808419694566
 20
178.6917085490601
 30
0.0
 10
117.8335398900031
 20
178.659669139911
 30
0.0
 10
118.0600550675891
 20
178.7190970762358
 30
0.0
  0
SPLINE
  5
8A
330
40
100
AcDbEntity
  8
Ebene 9
 62
   250
420
  2301728
370
     9
100
AcDbSpline
210
0.0
220
0.0
230
1.0
 70
     8
 71
     3
 72
     8
 73
     4
 74
     0
 42
0.0000000001
 43
0.0000000001
 40
0.0
 40
0.0
 40
0.0
 40
0.0
 40
1.0
 40
1.0
 40
1.0
 40
1.0
 10
118.0600550675891
 20
178.7190970762358
 30
0.0
 10
117.987535759784
 20
179.0841051836919
 30
0.0
 10
118.1742600582655
 20
179.3877905510562
 30
0.0
 10
118.1615131965611
 20
179.7417743456868
 30
0.0
  0
SPLINE
  5
8B
330
40
100
AcDbEntity
  8
Ebene 9
 62
   250
420
  2301728
370
     9
100
AcDbSpline
210
0.0
220
0.0
230
1.0
 70
    24
 71
     3
 72
     8
 73
     4
 74
     0
 42
0.0000000001
 43
0.0000000001
 40
0.0
 40
0.0
 40
0.0
 40
0.0
 40
1.0
 40
1.0
 40
1.0
 40
1.0
 10
123.7401599960284
 20
178.659669139911
 30
0.0
 10
123.7401599960284
 20
179.0346680308651
 30
0.0
 10
123.7401599960284
 20
179.4093224120435
 30
0.0
 10
123.7401599960284
 20
179.7841490481097
 30
0.0
  0
SPLINE
  5
8C
330
40
100
AcDbEntity
  8
Ebene 9
 62
   250
420
  2301728
370
     9
100
AcDbSpline
210
0.0
220
0.0
230
1.0
 70
     8
 71
     3
 72
     8
 73
     4
 74
     0
 42
0.0000000001
 43
0.0000000001
 40
0.0
 40
0.0
 40
0.0
 40
0.0
 40
1.0
 40
1.0
 40
1.0
 40
1.0
 10
123.7401599960284
 20
179.7841490481097
 30
0.0
 10
123.4254503158386
 20
179.8146381632677
 30
0.0
 10
123.0843856378004
 20
179.8490891408473
 30
0.0
 10
122.7767384080145
 20
179.7584830698129
 30
0.0
  0
SPLINE
  5
8D
330
40
100
AcDbEntity
  8
Ebene 9
 62
   250
420
  2301728
370
     9
100
AcDbSpline
210
0.0
220
0.0
230
1.0
 70
     8
 71
     3
 72
     8
 73
     4
 74
     0
 42
0.0000000001
 43
0.0000000001
 40
0.0
 40
0.0
 40
0.0
 40
0.0
 40
1.0
 40
1.0
 40
1.0
 40
1.0
 10
124.6022957099584
 20
178.6429604157849
 30
0.0
 10
124.499804051659
 20
179.0107246014473
 30
0.0
 10
124.5750794376705
 20
179.4051882947339
 30
0.0
 10
124.5518250278042
 20
179.7841490481097
 30
0.0
  0
SPLINE
  5
8E
330
40
100
AcDbEntity
  8
Ebene 9
 62
   250
420
  2301728
370
     9
100
AcDbSpline
210
0.0
220
0.0
230
1.0
 70
     8
 71
     3
 72
     8
 73
     4
 74
     0
 42
0.0000000001
 43
0.0000000001
 40
0.0
 40
0.0
 40
0.0
 40
0.0
 40
1.0
 40
1.0
 40
1.0
 40
1.0
 10
124.5518250278042
 20
179.7841490481097
 30
0.0
 10
124.286897010217
 20
179.8215283587836
 30
0.0
 10
124.0049157587278
 20
179.8280740445237
 30
0.0
 10
123.7401599960284
 20
179.7841490481097
 30
0.0
  0
SPLINE
  5
8F
330
40
100
AcDbEntity
  8
Ebene 9
 62
   250
420
  2301728
370
     9
100
AcDbSpline
210
0.0
220
0.0
230
1.0
 70
     8
 71
     3
 72
     8
 73
     4
 74
     0
 42
0.0000000001
 43
0.0000000001
 40
0.0
 40
0.0
 40
0.0
 40
0.0
 40
1.0
 40
1.0
 40
1.0
 40
1.0
 10
126.2762687105519
 20
178.5583832658269
 30
0.0
 10
126.2521530262462
 20
178.9952216615365
 30
0.0
 10
126.1136600963761
 20
179.4115617255861
 30
0.0
 10
126.073352452608
 20
179.8430602197708
 30
0.0
  0
SPLINE
  5
90
330
40
100
AcDbEntity
  8
Ebene 9
 62
   250
420
  2301728
370
     9
100
AcDbSpline
210
0.0
220
0.0
230
1.0
 70
     8
 71
     3
 72
     8
 73
     4
 74
     0
 42
0.0000000001
 43
0.0000000001
 40
0.0
 40
0.0
 40
0.0
 40
0.0
 40
1.0
 40
1.0
 40
1.0
 40
1.0
 10
126.073352452608
 20
179.8430602197708
 30
0.0
 10
125.5689901408424
 20
179.8130878692766
 30
0.0
 10
125.0604937117673
 20
179.814121398604
 30
0.0
 10
124.5518250278042
 20
179.7841490481097
 30
0.0
  0
SPLINE
  5
91
330
40
100
AcDbEntity
  8
Ebene 9
 62
   250
420
  2301728
370
     9
100
AcDbSpline
210
0.0
220
0.0
230
1.0
 70
     8
 71
     3
 72
     8
 73
     4
 74
     0
 42
0.0000000001
 43
0.0000000001
 40
0.0
 40
0.0
 40
0.0
 40
0.0
 40
1.0
 40
1.0
 40
1.0
 40
1.0
 10
126.9861311035799
 20
178.5583832658269
 30
0.0
 10
127.0078352194551
 20
178.9981499946307
 30
0.0
 10
126.9434118913812
 20
179.4373999587708
 30
0.0
 10
126.8342022924538
 20
179.8601134536727
 30
0.0
  0
SPLINE
  5
92
330
40
100
AcDbEntity
  8
Ebene 9
 62
   250
420
  2301728
370
     9
100
AcDbSpline
210
0.0
220
0.0
230
1.0
 70
     8
 71
     3
 72
     8
 73
     4
 74
     0
 42
0.0000000001
 43
0.0000000001
 40
0.0
 40
0.0
 40
0.0
 40
0.0
 40
1.0
 40
1.0
 40
1.0
 40
1.0
 10
126.8342022924538
 20
179.8601134536727
 30
0.0
 10
126.5808153523557
 20
179.8506394348383
 30
0.0
 10
126.3245000791634
 20
179.8804395304447
 30
0.0
 10
126.073352452608
 20
179.8430602197708
 30
0.0
  0
SPLINE
  5
93
330
40
100
AcDbEntity
  8
Ebene 9
 62
   250
420
  2301728
370
     9
100
AcDbSpline
210
0.0
220
0.0
230
1.0
 70
     8
 71
     3
 72
     8
 73
     4
 74
     0
 42
0.0000000001
 43
0.0000000001
 40
0.0
 40
0.0
 40
0.0
 40
0.0
 40
1.0
 40
1.0
 40
1.0
 40
1.0
 10
109.3115738210212
 20
178.0090624283199
 30
0.0
 10
117.3522597332159
 20
176.4739268673722
 30
0.0
 10
125.8905900165481
 20
177.1533001452422
 30
0.0
 10
133.8833890699071
 20
178.085026833883
 30
0.0
  0
SPLINE
  5
94
330
40
100
AcDbEntity
  8
Ebene 9
 62
   250
420
  2301728
370
     9
100
AcDbSpline
210
0.0
220
0.0
230
1.0
 70
     8
 71
     3
 72
     8
 73
     4
 74
     0
 42
0.0000000001
 43
0.0000000001
 40
0.0
 40
0.0
 40
0.0
 40
0.0
 40
1.0
 40
1.0
 40
1.0
 40
1.0
 10
134.7796312516409
 20
178.000449683925
 30
0.0
 10
134.796339975767
 20
178.5502872860957
 30
0.0
 10
135.3733938502256
 20
179.4373999587708
 30
0.0
 10
134.6950541016829
 20
179.7755363037148
 30
0.0
  0
SPLINE
  5
95
330
40
100
AcDbEntity
  8
Ebene 9
 62
   250
420
  2301728
370
     9
100
AcDbSpline
210
0.0
220
0.0
230
1.0
 70
     8
 71
     3
 72
     8
 73
     4
 74
     0
 42
0.0000000001
 43
0.0000000001
 40
0.0
 40
0.0
 40
0.0
 40
0.0
 40
1.0
 40
1.0
 40
1.0
 40
1.0
 10
134.6950541016829
 20
179.7755363037148
 30
0.0
 10
134.5255552919912
 20
179.7016389568065
 30
0.0
 10
134.3405535423886
 20
179.6766619980613
 30
0.0
 10
134.1627864980778
 20
179.6320479820957
 30
0.0
  0
SPLINE
  5
96
330
40
100
AcDbEntity
  8
Ebene 9
 62
   250
420
  2301728
370
     9
100
AcDbSpline
210
0.0
220
0.0
230
1.0
 70
     8
 71
     3
 72
     8
 73
     4
 74
     0
 42
0.0000000001
 43
0.0000000001
 40
0.0
 40
0.0
 40
0.0
 40
0.0
 40
1.0
 40
1.0
 40
1.0
 40
1.0
 10
134.1627864980778
 20
179.6320479820957
 30
0.0
 10
134.0094796478485
 20
179.4468739776052
 30
0.0
 10
133.7557481979747
 20
179.3857234924014
 30
0.0
 10
133.5288885106129
 20
179.3529950637008
 30
0.0
  0
SPLINE
  5
97
330
40
100
AcDbEntity
  8
Ebene 9
 62
   250
420
  2301728
370
     9
100
AcDbSpline
210
0.0
220
0.0
230
1.0
 70
     8
 71
     3
 72
     8
 73
     4
 74
     0
 42
0.0000000001
 43
0.0000000001
 40
0.0
 40
0.0
 40
0.0
 40
0.0
 40
1.0
 40
1.0
 40
1.0
 40
1.0
 10
133.5288885106129
 20
179.3529950637008
 30
0.0
 10
133.3349295068396
 20
179.2751358543709
 30
0.0
 10
133.1283958962498
 20
179.2406848767912
 30
0.0
 10
132.920139736781
 20
179.2515369347288
 30
0.0
  0
SPLINE
  5
98
330
40
100
AcDbEntity
  8
Ebene 9
 62
   250
420
  2301728
370
     9
100
AcDbSpline
210
0.0
220
0.0
230
1.0
 70
     8
 71
     3
 72
     8
 73
     4
 74
     0
 42
0.0000000001
 43
0.0000000001
 40
0.0
 40
0.0
 40
0.0
 40
0.0
 40
1.0
 40
1.0
 40
1.0
 40
1.0
 10
132.920139736781
 20
179.2515369347288
 30
0.0
 10
132.7080939697785
 20
179.0520657745428
 30
0.0
 10
132.3832212512027
 20
179.0606785189377
 30
0.0
 10
132.1088192147811
 20
179.0486206767849
 30
0.0
  0
SPLINE
  5
99
330
40
100
AcDbEntity
  8
Ebene 9
 62
   250
420
  2301728
370
     9
100
AcDbSpline
210
0.0
220
0.0
230
1.0
 70
     8
 71
     3
 72
     8
 73
     4
 74
     0
 42
0.0000000001
 43
0.0000000001
 40
0.0
 40
0.0
 40
0.0
 40
0.0
 40
1.0
 40
1.0
 40
1.0
 40
1.0
 10
132.1088192147811
 20
179.0486206767849
 30
0.0
 10
131.5574313186193
 20
178.9440619598307
 30
0.0
 10
131.0125891081977
 20
178.7824868749823
 30
0.0
 10
130.4346739592996
 20
178.820210695432
 30
0.0
  0
SPLINE
  5
9A
330
40
100
AcDbEntity
  8
Ebene 9
 62
   250
420
  2301728
370
     9
100
AcDbSpline
210
0.0
220
0.0
230
1.0
 70
     8
 71
     3
 72
     8
 73
     4
 74
     0
 42
0.0000000001
 43
0.0000000001
 40
0.0
 40
0.0
 40
0.0
 40
0.0
 40
1.0
 40
1.0
 40
1.0
 40
1.0
 10
130.4346739592996
 20
178.820210695432
 30
0.0
 10
130.1738800590219
 20
178.7394231530078
 30
0.0
 10
129.899822532376
 20
178.6367592398205
 30
0.0
 10
129.6235256921875
 20
178.7190970762358
 30
0.0
  0
SPLINE
  5
9B
330
40
100
AcDbEntity
  8
Ebene 9
 62
   250
420
  2301728
370
     9
100
AcDbSpline
210
0.0
220
0.0
230
1.0
 70
     8
 71
     3
 72
     8
 73
     4
 74
     0
 42
0.0000000001
 43
0.0000000001
 40
0.0
 40
0.0
 40
0.0
 40
0.0
 40
1.0
 40
1.0
 40
1.0
 40
1.0
 10
129.6235256921875
 20
178.7190970762358
 30
0.0
 10
129.3840913980092
 20
178.5682017944371
 30
0.0
 10
129.0807505404206
 20
178.5675127748855
 30
0.0
 10
128.8122051701875
 20
178.6176389472639
 30
0.0
  0
SPLINE
  5
9C
330
40
100
AcDbEntity
  8
Ebene 9
 62
   250
420
  2301728
370
     9
100
AcDbSpline
210
0.0
220
0.0
230
1.0
 70
     8
 71
     3
 72
     8
 73
     4
 74
     0
 42
0.0000000001
 43
0.0000000001
 40
0.0
 40
0.0
 40
0.0
 40
0.0
 40
1.0
 40
1.0
 40
1.0
 40
1.0
 10
128.8122051701875
 20
178.6176389472639
 30
0.0
 10
128.496978725334
 20
178.586977577218
 30
0.0
 10
128.1559140472958
 20
178.5521820898626
 30
0.0
 10
127.8482668175099
 20
178.6429604157849
 30
0.0
  0
SPLINE
  5
9D
330
40
100
AcDbEntity
  8
Ebene 9
 62
   250
420
  2301728
370
     9
100
AcDbSpline
210
0.0
220
0.0
230
1.0
 70
     8
 71
     3
 72
     8
 73
     4
 74
     0
 42
0.0000000001
 43
0.0000000001
 40
0.0
 40
0.0
 40
0.0
 40
0.0
 40
1.0
 40
1.0
 40
1.0
 40
1.0
 10
127.8482668175099
 20
178.6429604157849
 30
0.0
 10
127.5690416442271
 20
178.5885278712091
 30
0.0
 10
127.2743135310334
 20
178.516008563404
 30
0.0
 10
126.9861311035799
 20
178.5583832658269
 30
0.0
  0
SPLINE
  5
9E
330
40
100
AcDbEntity
  8
Ebene 9
 62
   250
420
  2301728
370
     9
100
AcDbSpline
210
0.0
220
0.0
230
1.0
 70
     8
 71
     3
 72
     8
 73
     4
 74
     0
 42
0.0000000001
 43
0.0000000001
 40
0.0
 40
0.0
 40
0.0
 40
0.0
 40
1.0
 40
1.0
 40
1.0
 40
1.0
 10
126.9861311035799
 20
178.5583832658269
 30
0.0
 10
126.7516922011506
 20
178.5337508168575
 30
0.0
 10
126.5101908483175
 20
178.5292721897721
 30
0.0
 10
126.2762687105519
 20
178.5583832658269
 30
0.0
  0
SPLINE
  5
9F
330
40
100
AcDbEntity
  8
Ebene 9
 62
   250
420
  2301728
370
     9
100
AcDbSpline
210
0.0
220
0.0
230
1.0
 70
     8
 71
     3
 72
     8
 73
     4
 74
     0
 42
0.0000000001
 43
0.0000000001
 40
0.0
 40
0.0
 40
0.0
 40
0.0
 40
1.0
 40
1.0
 40
1.0
 40
1.0
 10
126.2762687105519
 20
178.5583832658269
 30
0.0
 10
125.7214357166322
 20
178.549770521432
 30
0.0
 10
125.1504107632501
 20
178.5737139508499
 30
0.0
 10
124.6022957099584
 20
178.6429604157849
 30
0.0
  0
SPLINE
  5
A0
330
40
100
AcDbEntity
  8
Ebene 9
 62
   250
420
  2301728
370
     9
100
AcDbSpline
210
0.0
220
0.0
230
1.0
 70
     8
 71
     3
 72
     8
 73
     4
 74
     0
 42
0.0000000001
 43
0.0000000001
 40
0.0
 40
0.0
 40
0.0
 40
0.0
 40
1.0
 40
1.0
 40
1.0
 40
1.0
 10
124.6022957099584
 20
178.6429604157849
 30
0.0
 10
124.3246208306666
 20
178.5452918943467
 30
0.0
 10
124.0204186986386
 20
178.5962793411645
 30
0.0
 10
123.7401599960284
 20
178.659669139911
 30
0.0
  0
SPLINE
  5
A1
330
40
100
AcDbEntity
  8
Ebene 9
 62
   250
420
  2301728
370
     9
100
AcDbSpline
210
0.0
220
0.0
230
1.0
 70
     8
 71
     3
 72
     8
 73
     4
 74
     0
 42
0.0000000001
 43
0.0000000001
 40
0.0
 40
0.0
 40
0.0
 40
0.0
 40
1.0
 40
1.0
 40
1.0
 40
1.0
 10
123.7401599960284
 20
178.659669139911
 30
0.0
 10
123.4419867850768
 20
178.6927420783874
 30
0.0
 10
123.1277938695507
 20
178.6768946287008
 30
0.0
 10
122.8272090901686
 20
178.7190970762358
 30
0.0
  0
SPLINE
  5
A2
330
40
100
AcDbEntity
  8
Ebene 9
 62
   250
420
  2301728
370
     9
100
AcDbSpline
210
0.0
220
0.0
230
1.0
 70
     8
 71
     3
 72
     8
 73
     4
 74
     0
 42
0.0000000001
 43
0.0000000001
 40
0.0
 40
0.0
 40
0.0
 40
0.0
 40
1.0
 40
1.0
 40
1.0
 40
1.0
 10
122.8272090901686
 20
178.7190970762358
 30
0.0
 10
122.5124994099788
 20
178.6886079610779
 30
0.0
 10
122.1712624770527
 20
178.6534679639467
 30
0.0
 10
121.8639597570425
 20
178.744246289869
 30
0.0
  0
SPLINE
  5
A3
330
40
100
AcDbEntity
  8
Ebene 9
 62
   250
420
  2301728
370
     9
100
AcDbSpline
210
0.0
220
0.0
230
1.0
 70
     8
 71
     3
 72
     8
 73
     4
 74
     0
 42
0.0000000001
 43
0.0000000001
 40
0.0
 40
0.0
 40
0.0
 40
0.0
 40
1.0
 40
1.0
 40
1.0
 40
1.0
 10
121.8639597570425
 20
178.744246289869
 30
0.0
 10
121.5218615496769
 20
178.6598413947989
 30
0.0
 10
121.1470349136107
 20
178.6825790400015
 30
0.0
 10
120.7987355302808
 20
178.7190970762358
 30
0.0
  0
SPLINE
  5
A4
330
40
100
AcDbEntity
  8
Ebene 9
 62
   250
420
  2301728
370
     9
100
AcDbSpline
210
0.0
220
0.0
230
1.0
 70
     8
 71
     3
 72
     8
 73
     4
 74
     0
 42
0.0000000001
 43
0.0000000001
 40
0.0
 40
0.0
 40
0.0
 40
0.0
 40
1.0
 40
1.0
 40
1.0
 40
1.0
 10
118.0600550675891
 20
178.7190970762358
 30
0.0
 10
118.4159336659865
 20
178.6775836482524
 30
0.0
 10
118.7681949117381
 20
178.6295245345288
 30
0.0
 10
119.125107039463
 20
178.6936033528269
 30
0.0
  0
SPLINE
  5
A5
330
40
100
AcDbEntity
  8
Ebene 9
 62
   250
420
  2301728
370
     9
100
AcDbSpline
210
0.0
220
0.0
230
1.0
 70
     8
 71
     3
 72
     8
 73
     4
 74
     0
 42
0.0000000001
 43
0.0000000001
 40
0.0
 40
0.0
 40
0.0
 40
0.0
 40
1.0
 40
1.0
 40
1.0
 40
1.0
 10
119.125107039463
 20
178.6936033528269
 30
0.0
 10
119.167309486998
 20
179.0284668549008
 30
0.0
 10
119.1907361517521
 20
179.366086435181
 30
0.0
 10
119.1759222313929
 20
179.707667877883
 30
0.0
  0
SPLINE
  5
A6
330
40
100
AcDbEntity
  8
Ebene 9
 62
   250
420
  2301728
370
     9
100
AcDbSpline
210
0.0
220
0.0
230
1.0
 70
     8
 71
     3
 72
     8
 73
     4
 74
     0
 42
0.0000000001
 43
0.0000000001
 40
0.0
 40
0.0
 40
0.0
 40
0.0
 40
1.0
 40
1.0
 40
1.0
 40
1.0
 10
119.125107039463
 20
178.6936033528269
 30
0.0
 10
119.3707425096056
 20
178.6560517872651
 30
0.0
 10
119.6510012122158
 20
178.5854272832269
 30
0.0
 10
119.8859568793088
 20
178.6936033528269
 30
0.0
  0
SPLINE
  5
A7
330
40
100
AcDbEntity
  8
Ebene 9
 62
   250
420
  2301728
370
     9
100
AcDbSpline
210
0.0
220
0.0
230
1.0
 70
     8
 71
     3
 72
     8
 73
     4
 74
     0
 42
0.0000000001
 43
0.0000000001
 40
0.0
 40
0.0
 40
0.0
 40
0.0
 40
1.0
 40
1.0
 40
1.0
 40
1.0
 10
119.8859568793088
 20
178.6936033528269
 30
0.0
 10
119.8322133542846
 20
179.0413859714932
 30
0.0
 10
120.0609678454132
 20
179.3285348696193
 30
0.0
 10
119.9872427533929
 20
179.6823464093619
 30
0.0
  0
SPLINE
  5
A8
330
40
100
AcDbEntity
  8
Ebene 9
 62
   250
420
  2301728
370
     9
100
AcDbSpline
210
0.0
220
0.0
230
1.0
 70
     8
 71
     3
 72
     8
 73
     4
 74
     0
 42
0.0000000001
 43
0.0000000001
 40
0.0
 40
0.0
 40
0.0
 40
0.0
 40
1.0
 40
1.0
 40
1.0
 40
1.0
 10
119.8859568793088
 20
178.6936033528269
 30
0.0
 10
120.1923983248795
 20
178.6591523752473
 30
0.0
 10
120.4964282020196
 20
178.6317638480715
 30
0.0
 10
120.7987355302808
 20
178.7190970762358
 30
0.0
  0
SPLINE
  5
A9
330
40
100
AcDbEntity
  8
Ebene 9
 62
   250
420
  2301728
370
     9
100
AcDbSpline
210
0.0
220
0.0
230
1.0
 70
     8
 71
     3
 72
     8
 73
     4
 74
     0
 42
0.0000000001
 43
0.0000000001
 40
0.0
 40
0.0
 40
0.0
 40
0.0
 40
1.0
 40
1.0
 40
1.0
 40
1.0
 10
120.7987355302808
 20
178.7190970762358
 30
0.0
 10
120.818544842389
 20
179.0470703827938
 30
0.0
 10
120.7630787684858
 20
179.3650529058536
 30
0.0
 10
120.6971051464209
 20
179.6823464093619
 30
0.0
  0
SPLINE
  5
AA
330
40
100
AcDbEntity
  8
Ebene 9
 62
   250
420
  2301728
370
     9
100
AcDbSpline
210
0.0
220
0.0
230
1.0
 70
     8
 71
     3
 72
     8
 73
     4
 74
     0
 42
0.0000000001
 43
0.0000000001
 40
0.0
 40
0.0
 40
0.0
 40
0.0
 40
1.0
 40
1.0
 40
1.0
 40
1.0
 10
121.8639597570425
 20
178.744246289869
 30
0.0
 10
121.765085451389
 20
179.0644681264715
 30
0.0
 10
121.8339874065482
 20
179.4107004511467
 30
0.0
 10
121.8131445651126
 20
179.7417743456868
 30
0.0
  0
SPLINE
  5
AB
330
40
100
AcDbEntity
  8
Ebene 9
 62
   250
420
  2301728
370
     9
100
AcDbSpline
210
0.0
220
0.0
230
1.0
 70
     8
 71
     3
 72
     8
 73
     4
 74
     0
 42
0.0000000001
 43
0.0000000001
 40
0.0
 40
0.0
 40
0.0
 40
0.0
 40
1.0
 40
1.0
 40
1.0
 40
1.0
 10
121.8131445651126
 20
179.7417743456868
 30
0.0
 10
121.4427965561317
 20
179.7643397360014
 30
0.0
 10
121.0567733523521
 20
179.7962068902626
 30
0.0
 10
120.6971051464209
 20
179.6823464093619
 30
0.0
  0
SPLINE
  5
AC
330
40
100
AcDbEntity
  8
Ebene 9
 62
   250
420
  2301728
370
     9
100
AcDbSpline
210
0.0
220
0.0
230
1.0
 70
     8
 71
     3
 72
     8
 73
     4
 74
     0
 42
0.0000000001
 43
0.0000000001
 40
0.0
 40
0.0
 40
0.0
 40
0.0
 40
1.0
 40
1.0
 40
1.0
 40
1.0
 10
122.8272090901686
 20
178.7190970762358
 30
0.0
 10
122.8018876216476
 20
179.0637791069199
 30
0.0
 10
122.8833641836234
 20
179.425342116618
 30
0.0
 10
122.7767384080145
 20
179.7584830698129
 30
0.0
  0
SPLINE
  5
AD
330
40
100
AcDbEntity
  8
Ebene 9
 62
   250
420
  2301728
370
     9
100
AcDbSpline
210
0.0
220
0.0
230
1.0
 70
     8
 71
     3
 72
     8
 73
     4
 74
     0
 42
0.0000000001
 43
0.0000000001
 40
0.0
 40
0.0
 40
0.0
 40
0.0
 40
1.0
 40
1.0
 40
1.0
 40
1.0
 10
122.7767384080145
 20
179.7584830698129
 30
0.0
 10
122.4558275518603
 20
179.7483200314269
 30
0.0
 10
122.1316438528361
 20
179.7800149308001
 30
0.0
 10
121.8131445651126
 20
179.7417743456868
 30
0.0
  0
SPLINE
  5
AE
330
40
100
AcDbEntity
  8
Ebene 9
 62
   250
420
  2301728
370
     9
100
AcDbSpline
210
0.0
220
0.0
230
1.0
 70
     8
 71
     3
 72
     8
 73
     4
 74
     0
 42
0.0000000001
 43
0.0000000001
 40
0.0
 40
0.0
 40
0.0
 40
0.0
 40
1.0
 40
1.0
 40
1.0
 40
1.0
 10
135.2192257255568
 20
176.3774641301493
 30
0.0
 10
135.264528761074
 20
176.60277352352
 30
0.0
 10
135.212163275153
 20
176.8389349748282
 30
0.0
 10
135.1768510231338
 20
177.0706177990512
 30
0.0
  0
SPLINE
  5
AF
330
40
100
AcDbEntity
  8
Ebene 9
 62
   250
420
  2301728
370
     9
100
AcDbSpline
210
0.0
220
0.0
230
1.0
 70
     8
 71
     3
 72
     8
 73
     4
 74
     0
 42
0.0000000001
 43
0.0000000001
 40
0.0
 40
0.0
 40
0.0
 40
0.0
 40
1.0
 40
1.0
 40
1.0
 40
1.0
 10
135.1768510231338
 20
177.0706177990512
 30
0.0
 10
131.6325344497429
 20
175.8884325034066
 30
0.0
 10
127.7607613344576
 20
175.2634917701124
 30
0.0
 10
123.9432485088603
 20
175.1179363898385
 30
0.0
  0
SPLINE
  5
B0
330
40
100
AcDbEntity
  8
Ebene 9
 62
   250
420
  2301728
370
     9
100
AcDbSpline
210
0.0
220
0.0
230
1.0
 70
     8
 71
     3
 72
     8
 73
     4
 74
     0
 42
0.0000000001
 43
0.0000000001
 40
0.0
 40
0.0
 40
0.0
 40
0.0
 40
1.0
 40
1.0
 40
1.0
 40
1.0
 10
109.4213001846123
 20
176.4789222591212
 30
0.0
 10
114.0437601013574
 20
174.9332791500117
 30
0.0
 10
119.0934121400897
 20
174.7541340665977
 30
0.0
 10
123.9432485088603
 20
174.8054660231914
 30
0.0
  0
SPLINE
  5
B1
330
40
100
AcDbEntity
  8
Ebene 9
 62
   250
420
  2301728
370
     9
100
AcDbSpline
210
0.0
220
0.0
230
1.0
 70
    24
 71
     3
 72
     8
 73
     4
 74
     0
 42
0.0000000001
 43
0.0000000001
 40
0.0
 40
0.0
 40
0.0
 40
0.0
 40
1.0
 40
1.0
 40
1.0
 40
1.0
 10
123.9432485088603
 20
174.8054660231914
 30
0.0
 10
123.9432485088603
 20
174.8797078798754
 30
0.0
 10
123.9432485088603
 20
174.9871949299238
 30
0.0
 10
123.9432485088603
 20
175.1179363898385
 30
0.0
  0
SPLINE
  5
B2
330
40
100
AcDbEntity
  8
Ebene 9
 62
   250
420
  2301728
370
     9
100
AcDbSpline
210
0.0
220
0.0
230
1.0
 70
     8
 71
     3
 72
     8
 73
     4
 74
     0
 42
0.0000000001
 43
0.0000000001
 40
0.0
 40
0.0
 40
0.0
 40
0.0
 40
1.0
 40
1.0
 40
1.0
 40
1.0
 10
134.3402090326128
 20
174.9911567923455
 30
0.0
 10
134.9406895718256
 20
175.1547989358487
 30
0.0
 10
136.3132165185975
 20
175.843818487441
 30
0.0
 10
135.2192257255568
 20
176.3774641301493
 30
0.0
  0
SPLINE
  5
B3
330
40
100
AcDbEntity
  8
Ebene 9
 62
   250
420
  2301728
370
     9
100
AcDbSpline
210
0.0
220
0.0
230
1.0
 70
     8
 71
     3
 72
     8
 73
     4
 74
     0
 42
0.0000000001
 43
0.0000000001
 40
0.0
 40
0.0
 40
0.0
 40
0.0
 40
1.0
 40
1.0
 40
1.0
 40
1.0
 10
135.2192257255568
 20
176.3774641301493
 30
0.0
 10
131.7637926743212
 20
174.9744480682194
 30
0.0
 10
127.6854859484462
 20
175.2731380438346
 30
0.0
 10
123.9432485088603
 20
174.8054660231914
 30
0.0
  0
SPLINE
  5
B4
330
40
100
AcDbEntity
  8
Ebene 9
 62
   250
420
  2301728
370
     9
100
AcDbSpline
210
0.0
220
0.0
230
1.0
 70
     8
 71
     3
 72
     8
 73
     4
 74
     0
 42
0.0000000001
 43
0.0000000001
 40
0.0
 40
0.0
 40
0.0
 40
0.0
 40
1.0
 40
1.0
 40
1.0
 40
1.0
 10
134.3402090326128
 20
174.0782058864856
 30
0.0
 10
134.4135896148574
 20
174.3694889019213
 30
0.0
 10
134.4240971630192
 20
174.701251816013
 30
0.0
 10
134.3402090326128
 20
174.9911567923455
 30
0.0
  0
SPLINE
  5
B5
330
40
100
AcDbEntity
  8
Ebene 9
 62
   250
420
  2301728
370
     9
100
AcDbSpline
210
0.0
220
0.0
230
1.0
 70
     8
 71
     3
 72
     8
 73
     4
 74
     0
 42
0.0000000001
 43
0.0000000001
 40
0.0
 40
0.0
 40
0.0
 40
0.0
 40
1.0
 40
1.0
 40
1.0
 40
1.0
 10
134.3402090326128
 20
174.9911567923455
 30
0.0
 10
126.2680004759328
 20
173.2369130139914
 30
0.0
 10
117.477144526942
 20
173.8120720846831
 30
0.0
 10
109.3622167580632
 20
175.3461741163034
 30
0.0
  0
SPLINE
  5
B6
330
40
100
AcDbEntity
  8
Ebene 9
 62
   250
420
  2301728
370
     9
100
AcDbSpline
210
0.0
220
0.0
230
1.0
 70
     8
 71
     3
 72
    20
 73
    16
 74
     0
 42
0.0000000001
 43
0.0000000001
 40
0.0
 40
0.0
 40
0.0
 40
0.0
 40
1.0
 40
1.0
 40
1.0
 40
2.0
 40
2.0
 40
2.0
 40
3.0
 40
3.0
 40
3.0
 40
4.0
 40
4.0
 40
4.0
 40
5.0
 40
5.0
 40
5.0
 40
5.0
 10
109.2523181395842
 20
172.9966174453736
 30
0.0
 10
109.2650650012887
 20
173.0002347980194
 30
0.0
 10
109.2776396081053
 20
173.0041966604411
 30
0.0
 10
109.2905587246976
 20
173.0078140130869
 30
0.0
 10
113.1645711535255
 20
171.3813833615532
 30
0.0
 10
117.5630997160031
 20
172.0187264467762
 30
0.0
 10
121.6588041855559
 20
171.3943024781456
 30
0.0
 10
126.0730079428322
 20
171.8192552865902
 30
0.0
 10
131.1500485087403
 20
170.8067410555252
 30
0.0
 10
135.0233719180167
 20
173.2918623232309
 30
0.0
 10
135.0457650534434
 20
173.3411272211698
 30
0.0
 10
135.0674691693186
 20
173.3788510416194
 30
0.0
 10
135.0888287754179
 20
173.4162303522933
 30
0.0
 10
135.0712587768523
 20
173.7922627725748
 30
0.0
 10
134.6463059684077
 20
173.9603835431633
 30
0.0
 10
134.3402090326128
 20
174.0782058864856
 30
0.0
  0
SPLINE
  5
B7
330
40
100
AcDbEntity
  8
Ebene 9
 62
   250
420
  2301728
370
     9
100
AcDbSpline
210
0.0
220
0.0
230
1.0
 70
     8
 71
     3
 72
    14
 73
    10
 74
     0
 42
0.0000000001
 43
0.0000000001
 40
0.0
 40
0.0
 40
0.0
 40
0.0
 40
1.0
 40
1.0
 40
1.0
 40
2.0
 40
2.0
 40
2.0
 40
3.0
 40
3.0
 40
3.0
 40
3.0
 10
134.3402090326128
 20
174.0782058864856
 30
0.0
 10
132.4025137986473
 20
173.2084909574882
 30
0.0
 10
130.3661165139162
 20
172.8994656885991
 30
0.0
 10
128.1545360081927
 20
172.806620304022
 30
0.0
 10
122.0188169012629
 20
172.5485824819507
 30
0.0
 10
115.0497286466822
 20
172.7564941316436
 30
0.0
 10
109.3977012649702
 20
174.393604586227
 30
0.0
 10
109.3489531316951
 20
174.4654348744805
 30
0.0
 10
109.2896974502581
 20
174.5210732032716
 30
0.0
 10
109.2101156920492
 20
174.6364839781633
 30
0.0
  0
SPLINE
  5
B8
330
40
100
AcDbEntity
  8
Ebene 9
 62
   250
420
  2301728
370
     9
100
AcDbSpline
210
0.0
220
0.0
230
1.0
 70
     8
 71
     3
 72
     8
 73
     4
 74
     0
 42
0.0000000001
 43
0.0000000001
 40
0.0
 40
0.0
 40
0.0
 40
0.0
 40
1.0
 40
1.0
 40
1.0
 40
1.0
 10
110.6555064564021
 20
134.8748882046485
 30
0.0
 10
116.8682234982222
 20
136.2095190760829
 30
0.0
 10
123.7038142146819
 20
136.9491815647172
 30
0.0
 10
129.8769126322856
 20
135.1281028898587
 30
0.0
  0
ENDBLK
  5
43
330
40
100
AcDbEntity
  8
0
100
AcDbBlockEnd
  0
BLOCK
  5
BB
330
B9
100
AcDbEntity
  8
0
100
AcDbBlockBegin
  2
block 4
 70
     0
 71
     0
 10
0.0
 20
0.0
 30
0.0
  3
block 4
  1

  0
SPLINE
  5
BD
330
B9
100
AcDbEntity
  8
Ebene 9
 62
   250
420
  2301728
370
     9
100
AcDbSpline
210
0.0
220
0.0
230
1.0
 70
     8
 71
     3
 72
     8
 73
     4
 74
     0
 42
0.0000000001
 43
0.0000000001
 40
0.0
 40
0.0
 40
0.0
 40
0.0
 40
1.0
 40
1.0
 40
1.0
 40
1.0
 10
167.0996436130706
 20
155.6104148451562
 30
0.0
 10
167.2464047775597
 20
158.5046414716198
 30
0.0
 10
166.0609466390451
 20
161.1329065511688
 30
0.0
 10
165.22792200117
 20
163.8276620174464
 30
0.0
  0
SPLINE
  5
BE
330
B9
100
AcDbEntity
  8
Ebene 9
 62
   250
420
  2301728
370
     9
100
AcDbSpline
210
0.0
220
0.0
230
1.0
 70
     8
 71
     3
 72
     8
 73
     4
 74
     0
 42
0.0000000001
 43
0.0000000001
 40
0.0
 40
0.0
 40
0.0
 40
0.0
 40
1.0
 40
1.0
 40
1.0
 40
1.0
 10
138.964219243349
 20
157.3789557792059
 30
0.0
 10
138.494480164051
 20
159.9250552772274
 30
0.0
 10
140.5241595081541
 20
161.4839620127051
 30
0.0
 10
141.4085161026229
 20
163.5675571367203
 30
0.0
  0
SPLINE
  5
BF
330
B9
100
AcDbEntity
  8
Ebene 9
 62
   250
420
  2301728
370
     9
100
AcDbSpline
210
0.0
220
0.0
230
1.0
 70
     8
 71
     3
 72
     8
 73
     4
 74
     0
 42
0.0000000001
 43
0.0000000001
 40
0.0
 40
0.0
 40
0.0
 40
0.0
 40
1.0
 40
1.0
 40
1.0
 40
1.0
 10
138.7042866175108
 20
131.6871392492066
 30
0.0
 10
138.6436528969707
 20
136.0606908529389
 30
0.0
 10
139.2424108873044
 20
140.4087487332624
 30
0.0
 10
139.3281938214777
 20
144.7929801400444
 30
0.0
  0
SPLINE
  5
C0
330
B9
100
AcDbEntity
  8
Ebene 9
 62
   250
420
  2301728
370
     9
100
AcDbSpline
210
0.0
220
0.0
230
1.0
 70
     8
 71
     3
 72
     8
 73
     4
 74
     0
 42
0.0000000001
 43
0.0000000001
 40
0.0
 40
0.0
 40
0.0
 40
0.0
 40
1.0
 40
1.0
 40
1.0
 40
1.0
 10
166.1119340858629
 20
132.8312562146256
 30
0.0
 10
166.3630817124183
 20
136.6384337469491
 30
0.0
 10
166.4960624858757
 20
140.4903975501261
 30
0.0
 10
166.3716944568133
 20
144.273114888368
 30
0.0
  0
SPLINE
  5
C1
330
B9
100
AcDbEntity
  8
Ebene 9
 62
   250
420
  2301728
370
     9
100
AcDbSpline
210
0.0
220
0.0
230
1.0
 70
     8
 71
     3
 72
    38
 73
    34
 74
     0
 42
0.0000000001
 43
0.0000000001
 40
0.0
 40
0.0
 40
0.0
 40
0.0
 40
1.0
 40
1.0
 40
1.0
 40
2.0
 40
2.0
 40
2.0
 40
3.0
 40
3.0
 40
3.0
 40
4.0
 40
4.0
 40
4.0
 40
5.0
 40
5.0
 40
5.0
 40
6.0
 40
6.0
 40
6.0
 40
7.0
 40
7.0
 40
7.0
 40
8.0
 40
8.0
 40
8.0
 40
9.0
 40
9.0
 40
9.0
 40
10.0
 40
10.0
 40
10.0
 40
11.0
 40
11.0
 40
11.0
 40
11.0
 10
166.0602576194935
 20
164.6596531259942
 30
0.0
 10
166.0016909576082
 20
163.0296051218146
 30
0.0
 10
167.4007451571164
 20
161.1776928220223
 30
0.0
 10
167.8165684565024
 20
159.0994375995319
 30
0.0
 10
168.0966549042247
 20
157.6988331060326
 30
0.0
 10
167.8434402190145
 20
155.7268591493753
 30
0.0
 10
167.8386170821533
 20
154.0041380155066
 30
0.0
 10
167.832415906189
 20
151.7245168290633
 30
0.0
 10
167.6646396453763
 20
149.4269811342787
 30
0.0
 10
167.5271802448336
 20
147.4505285505361
 30
0.0
 10
167.0717383212311
 20
140.9303365338178
 30
0.0
 10
167.291535558189
 20
134.7532762537924
 30
0.0
 10
166.7268840356591
 20
129.2993419931633
 30
0.0
 10
166.5139769942171
 20
127.244685690315
 30
0.0
 10
165.4349723764235
 20
125.7853422800424
 30
0.0
 10
164.6016032287725
 20
124.6284784529189
 30
0.0
 10
162.0856483361331
 20
121.1385944241037
 30
0.0
 10
157.8450775058581
 20
121.3139498999839
 30
0.0
 10
153.8959619459066
 20
121.4686347893164
 30
0.0
 10
151.5028247883385
 20
121.5619969385572
 30
0.0
 10
149.0902228284379
 20
121.0634912929801
 30
0.0
 10
146.8920782039705
 20
121.3435777407024
 30
0.0
 10
144.1618382307858
 20
121.6908435947049
 30
0.0
 10
138.0753840217949
 20
124.4534674868144
 30
0.0
 10
137.6681734668038
 20
128.6685445936805
 30
0.0
 10
138.4929298700599
 20
137.7698038506637
 30
0.0
 10
137.5822182777427
 20
146.7990605645055
 30
0.0
 10
138.1844213658344
 20
156.1147771569218
 30
0.0
 10
138.3487525288892
 20
158.6520916556606
 30
0.0
 10
138.5094663392981
 20
160.5251913066644
 30
0.0
 10
139.6680527153006
 20
162.4990600670885
 30
0.0
 10
140.2020428677847
 20
163.4089103849662
 30
0.0
 10
140.4182227520968
 20
164.3396035442796
 30
0.0
 10
140.4897085305745
 20
165.6304816741878
 30
0.0
  0
SPLINE
  5
C2
330
B9
100
AcDbEntity
  8
Ebene 9
 62
   250
420
  2301728
370
     9
100
AcDbSpline
210
0.0
220
0.0
230
1.0
 70
     8
 71
     3
 72
    14
 73
    10
 74
     0
 42
0.0000000001
 43
0.0000000001
 40
0.0
 40
0.0
 40
0.0
 40
0.0
 40
1.0
 40
1.0
 40
1.0
 40
2.0
 40
2.0
 40
2.0
 40
3.0
 40
3.0
 40
3.0
 40
3.0
 10
140.4897085305745
 20
165.6304816741878
 30
0.0
 10
140.1584623811464
 20
166.1041826159075
 30
0.0
 10
139.3788367585197
 20
166.4023558268591
 30
0.0
 10
139.6193045820254
 20
167.1251373364795
 30
0.0
 10
139.7242078087554
 20
167.2191885052718
 30
0.0
 10
139.7934542736904
 20
167.3707728066221
 30
0.0
 10
139.9488281825745
 20
167.3871370209725
 30
0.0
 10
140.1148818945082
 20
167.3600930035724
 30
0.0
 10
140.2847252139757
 20
167.3643993757699
 30
0.0
 10
140.4464725537121
 20
167.3122061447368
 30
0.0
  0
SPLINE
  5
C3
330
B9
100
AcDbEntity
  8
Ebene 9
 62
   250
420
  2301728
370
     9
100
AcDbSpline
210
0.0
220
0.0
230
1.0
 70
     8
 71
     3
 72
     8
 73
     4
 74
     0
 42
0.0000000001
 43
0.0000000001
 40
0.0
 40
0.0
 40
0.0
 40
0.0
 40
1.0
 40
1.0
 40
1.0
 40
1.0
 10
140.4464725537121
 20
167.3122061447368
 30
0.0
 10
140.4914310794535
 20
167.5588751442068
 30
0.0
 10
140.5909944046585
 20
167.7871128706718
 30
0.0
 10
140.6023632272598
 20
168.0401553009941
 30
0.0
  0
SPLINE
  5
C4
330
B9
100
AcDbEntity
  8
Ebene 9
 62
   250
420
  2301728
370
     9
100
AcDbSpline
210
0.0
220
0.0
230
1.0
 70
     8
 71
     3
 72
    14
 73
    10
 74
     0
 42
0.0000000001
 43
0.0000000001
 40
0.0
 40
0.0
 40
0.0
 40
0.0
 40
1.0
 40
1.0
 40
1.0
 40
2.0
 40
2.0
 40
2.0
 40
3.0
 40
3.0
 40
3.0
 40
3.0
 10
140.6023632272598
 20
168.0401553009941
 30
0.0
 10
140.1207385606968
 20
168.297159593738
 30
0.0
 10
139.3672956810306
 20
168.5922322167075
 30
0.0
 10
139.2928815694586
 20
169.2223405966386
 30
0.0
 10
139.3538597997745
 20
169.2976159826501
 30
0.0
 10
139.4420543023783
 20
169.3482589196921
 30
0.0
 10
139.5069943951159
 20
169.4216395019367
 30
0.0
 10
139.9340142622152
 20
169.5763243912692
 30
0.0
 10
140.2816246259936
 20
169.2722945141291
 30
0.0
 10
140.6629969477999
 20
169.201497755203
 30
0.0
  0
SPLINE
  5
C5
330
B9
100
AcDbEntity
  8
Ebene 9
 62
   250
420
  2301728
370
     9
100
AcDbSpline
210
0.0
220
0.0
230
1.0
 70
     8
 71
     3
 72
     8
 73
     4
 74
     0
 42
0.0000000001
 43
0.0000000001
 40
0.0
 40
0.0
 40
0.0
 40
0.0
 40
1.0
 40
1.0
 40
1.0
 40
1.0
 10
140.6629969477999
 20
169.201497755203
 30
0.0
 10
140.6788443974866
 20
169.2776344156539
 30
0.0
 10
140.6779831230471
 20
169.4192279335062
 30
0.0
 10
140.6803946914777
 20
169.5484190994297
 30
0.0
  0
SPLINE
  5
C6
330
B9
100
AcDbEntity
  8
Ebene 9
 62
   250
420
  2301728
370
     9
100
AcDbSpline
210
0.0
220
0.0
230
1.0
 70
     8
 71
     3
 72
     8
 73
     4
 74
     0
 42
0.0000000001
 43
0.0000000001
 40
0.0
 40
0.0
 40
0.0
 40
0.0
 40
1.0
 40
1.0
 40
1.0
 40
1.0
 10
140.6803946914777
 20
169.5484190994297
 30
0.0
 10
140.630785283763
 20
169.7633931995265
 30
0.0
 10
140.5410404871681
 20
169.9828459267087
 30
0.0
 10
140.593578227977
 20
170.2072940456399
 30
0.0
  0
SPLINE
  5
C7
330
B9
100
AcDbEntity
  8
Ebene 9
 62
   250
420
  2301728
370
     9
100
AcDbSpline
210
0.0
220
0.0
230
1.0
 70
     8
 71
     3
 72
     8
 73
     4
 74
     0
 42
0.0000000001
 43
0.0000000001
 40
0.0
 40
0.0
 40
0.0
 40
0.0
 40
1.0
 40
1.0
 40
1.0
 40
1.0
 10
140.593578227977
 20
170.2072940456399
 30
0.0
 10
140.4125383407961
 20
170.3454424657342
 30
0.0
 10
140.47696166887
 20
170.5938340140832
 30
0.0
 10
140.5505145060025
 20
170.7705675290666
 30
0.0
  0
SPLINE
  5
C8
330
B9
100
AcDbEntity
  8
Ebene 9
 62
   250
420
  2301728
370
     9
100
AcDbSpline
210
0.0
220
0.0
230
1.0
 70
     8
 71
     3
 72
     8
 73
     4
 74
     0
 42
0.0000000001
 43
0.0000000001
 40
0.0
 40
0.0
 40
0.0
 40
0.0
 40
1.0
 40
1.0
 40
1.0
 40
1.0
 10
140.5505145060025
 20
170.7705675290666
 30
0.0
 10
140.2432117859923
 20
171.341247972673
 30
0.0
 10
140.8962300660139
 20
171.8633525378921
 30
0.0
 10
140.6285459702203
 20
172.4609047440105
 30
0.0
  0
SPLINE
  5
C9
330
B9
100
AcDbEntity
  8
Ebene 9
 62
   250
420
  2301728
370
     9
100
AcDbSpline
210
0.0
220
0.0
230
1.0
 70
     8
 71
     3
 72
     8
 73
     4
 74
     0
 42
0.0000000001
 43
0.0000000001
 40
0.0
 40
0.0
 40
0.0
 40
0.0
 40
1.0
 40
1.0
 40
1.0
 40
1.0
 10
140.6285459702203
 20
172.4609047440105
 30
0.0
 10
140.4118493212445
 20
172.5301512089456
 30
0.0
 10
140.2414892371133
 20
172.7215263894003
 30
0.0
 10
140.1603571849133
 20
172.9287490195417
 30
0.0
  0
SPLINE
  5
CA
330
B9
100
AcDbEntity
  8
Ebene 9
 62
   250
420
  2301728
370
     9
100
AcDbSpline
210
0.0
220
0.0
230
1.0
 70
     8
 71
     3
 72
     8
 73
     4
 74
     0
 42
0.0000000001
 43
0.0000000001
 40
0.0
 40
0.0
 40
0.0
 40
0.0
 40
1.0
 40
1.0
 40
1.0
 40
1.0
 10
166.6665948248948
 20
170.7619547846717
 30
0.0
 10
158.3745890312568
 20
168.8063450423648
 30
0.0
 10
148.9975496987488
 20
167.8506749243062
 30
0.0
 10
140.593578227977
 20
170.2072940456399
 30
0.0
  0
SPLINE
  5
CB
330
B9
100
AcDbEntity
  8
Ebene 9
 62
   250
420
  2301728
370
     9
100
AcDbSpline
210
0.0
220
0.0
230
1.0
 70
     8
 71
     3
 72
     8
 73
     4
 74
     0
 42
0.0000000001
 43
0.0000000001
 40
0.0
 40
0.0
 40
0.0
 40
0.0
 40
1.0
 40
1.0
 40
1.0
 40
1.0
 10
140.6803946914777
 20
169.5484190994297
 30
0.0
 10
145.4694250848202
 20
168.2277408739151
 30
0.0
 10
150.5204551626557
 20
167.8287985535432
 30
0.0
 10
155.5547765163651
 20
167.8062331632285
 30
0.0
  0
SPLINE
  5
CC
330
B9
100
AcDbEntity
  8
Ebene 9
 62
   250
420
  2301728
370
     9
100
AcDbSpline
210
0.0
220
0.0
230
1.0
 70
     8
 71
     3
 72
    11
 73
     7
 74
     0
 42
0.0000000001
 43
0.0000000001
 40
0.0
 40
0.0
 40
0.0
 40
0.0
 40
1.0
 40
1.0
 40
1.0
 40
2.0
 40
2.0
 40
2.0
 40
2.0
 10
167.0741498896616
 20
169.8083517252679
 30
0.0
 10
167.1440853741483
 20
169.957007693524
 30
0.0
 10
167.1554541967495
 20
170.1211666016908
 30
0.0
 10
167.200240467603
 20
170.2753347263596
 30
0.0
 10
167.1130794943266
 20
170.528204901794
 30
0.0
 10
166.8891481400591
 20
170.6479220488832
 30
0.0
 10
166.6665948248948
 20
170.7619547846717
 30
0.0
  0
SPLINE
  5
CD
330
B9
100
AcDbEntity
  8
Ebene 9
 62
   250
420
  2301728
370
     9
100
AcDbSpline
210
0.0
220
0.0
230
1.0
 70
     8
 71
     3
 72
     8
 73
     4
 74
     0
 42
0.0000000001
 43
0.0000000001
 40
0.0
 40
0.0
 40
0.0
 40
0.0
 40
1.0
 40
1.0
 40
1.0
 40
1.0
 10
140.1083362087681
 20
173.9517707987685
 30
0.0
 10
140.2156510039286
 20
173.9283441340143
 30
0.0
 10
140.2926489388191
 20
173.9173198211888
 30
0.0
 10
140.3684410894942
 20
173.8997498226232
 30
0.0
  0
SPLINE
  5
CE
330
B9
100
AcDbEntity
  8
Ebene 9
 62
   250
420
  2301728
370
     9
100
AcDbSpline
210
0.0
220
0.0
230
1.0
 70
     8
 71
     3
 72
     8
 73
     4
 74
     0
 42
0.0000000001
 43
0.0000000001
 40
0.0
 40
0.0
 40
0.0
 40
0.0
 40
1.0
 40
1.0
 40
1.0
 40
1.0
 10
140.3684410894942
 20
173.8997498226232
 30
0.0
 10
140.5443133300382
 20
173.9839824628054
 30
0.0
 10
140.7603209594623
 20
173.9956957951825
 30
0.0
 10
140.9404995722037
 20
173.9171475663009
 30
0.0
  0
SPLINE
  5
CF
330
B9
100
AcDbEntity
  8
Ebene 9
 62
   250
420
  2301728
370
     9
100
AcDbSpline
210
0.0
220
0.0
230
1.0
 70
     8
 71
     3
 72
     8
 73
     4
 74
     0
 42
0.0000000001
 43
0.0000000001
 40
0.0
 40
0.0
 40
0.0
 40
0.0
 40
1.0
 40
1.0
 40
1.0
 40
1.0
 10
140.9404995722037
 20
173.9171475663009
 30
0.0
 10
141.1609858287133
 20
173.8763231578691
 30
0.0
 10
141.3685529686305
 20
173.8289530636971
 30
0.0
 10
141.5645790310585
 20
173.7090636617201
 30
0.0
  0
SPLINE
  5
D0
330
B9
100
AcDbEntity
  8
Ebene 9
 62
   250
420
  2301728
370
     9
100
AcDbSpline
210
0.0
220
0.0
230
1.0
 70
     8
 71
     3
 72
     8
 73
     4
 74
     0
 42
0.0000000001
 43
0.0000000001
 40
0.0
 40
0.0
 40
0.0
 40
0.0
 40
1.0
 40
1.0
 40
1.0
 40
1.0
 10
141.5645790310585
 20
173.7090636617201
 30
0.0
 10
141.8167601869413
 20
173.6408507261124
 30
0.0
 10
142.096157615112
 20
173.7114752301506
 30
0.0
 10
142.2927004422037
 20
173.5009797571392
 30
0.0
  0
SPLINE
  5
D1
330
B9
100
AcDbEntity
  8
Ebene 9
 62
   250
420
  2301728
370
     9
100
AcDbSpline
210
0.0
220
0.0
230
1.0
 70
     8
 71
     3
 72
     8
 73
     4
 74
     0
 42
0.0000000001
 43
0.0000000001
 40
0.0
 40
0.0
 40
0.0
 40
0.0
 40
1.0
 40
1.0
 40
1.0
 40
1.0
 10
142.2927004422037
 20
173.5009797571392
 30
0.0
 10
142.5126699340496
 20
173.6126009244971
 30
0.0
 10
142.7336729552228
 20
173.433628095971
 30
0.0
 10
142.942962644019
 20
173.3707550618882
 30
0.0
  0
SPLINE
  5
D2
330
B9
100
AcDbEntity
  8
Ebene 9
 62
   250
420
  2301728
370
     9
100
AcDbSpline
210
0.0
220
0.0
230
1.0
 70
     8
 71
     3
 72
     8
 73
     4
 74
     0
 42
0.0000000001
 43
0.0000000001
 40
0.0
 40
0.0
 40
0.0
 40
0.0
 40
1.0
 40
1.0
 40
1.0
 40
1.0
 10
142.942962644019
 20
173.3707550618882
 30
0.0
 10
143.1963495841171
 20
173.306848498478
 30
0.0
 10
143.5153656365043
 20
173.4412073110385
 30
0.0
 10
143.7139755222508
 20
173.2236493876233
 30
0.0
  0
SPLINE
  5
D3
330
B9
100
AcDbEntity
  8
Ebene 9
 62
   250
420
  2301728
370
     9
100
AcDbSpline
210
0.0
220
0.0
230
1.0
 70
     8
 71
     3
 72
     8
 73
     4
 74
     0
 42
0.0000000001
 43
0.0000000001
 40
0.0
 40
0.0
 40
0.0
 40
0.0
 40
1.0
 40
1.0
 40
1.0
 40
1.0
 10
143.7139755222508
 20
173.2236493876233
 30
0.0
 10
144.051767357419
 20
173.2660240900462
 30
0.0
 10
144.3411555690877
 20
173.102381946543
 30
0.0
 10
144.6849763253323
 20
173.0849842028653
 30
0.0
  0
SPLINE
  5
D4
330
B9
100
AcDbEntity
  8
Ebene 9
 62
   250
420
  2301728
370
     9
100
AcDbSpline
210
0.0
220
0.0
230
1.0
 70
     8
 71
     3
 72
     8
 73
     4
 74
     0
 42
0.0000000001
 43
0.0000000001
 40
0.0
 40
0.0
 40
0.0
 40
0.0
 40
1.0
 40
1.0
 40
1.0
 40
1.0
 10
144.6849763253323
 20
173.0849842028653
 30
0.0
 10
145.0155334552088
 20
173.0293458740742
 30
0.0
 10
145.3448848008699
 20
172.9835260738933
 30
0.0
 10
145.6730303623157
 20
172.902910786357
 30
0.0
  0
SPLINE
  5
D5
330
B9
100
AcDbEntity
  8
Ebene 9
 62
   250
420
  2301728
370
     9
100
AcDbSpline
210
0.0
220
0.0
230
1.0
 70
     8
 71
     3
 72
     8
 73
     4
 74
     0
 42
0.0000000001
 43
0.0000000001
 40
0.0
 40
0.0
 40
0.0
 40
0.0
 40
1.0
 40
1.0
 40
1.0
 40
1.0
 10
145.6730303623157
 20
172.902910786357
 30
0.0
 10
146.010649942596
 20
172.8924032381952
 30
0.0
 10
146.358777071038
 20
172.8185058912869
 30
0.0
 10
146.7131053754444
 20
172.7556328572041
 30
0.0
  0
SPLINE
  5
D6
330
B9
100
AcDbEntity
  8
Ebene 9
 62
   250
420
  2301728
370
     9
100
AcDbSpline
210
0.0
220
0.0
230
1.0
 70
     8
 71
     3
 72
     8
 73
     4
 74
     0
 42
0.0000000001
 43
0.0000000001
 40
0.0
 40
0.0
 40
0.0
 40
0.0
 40
1.0
 40
1.0
 40
1.0
 40
1.0
 10
146.7131053754444
 20
172.7556328572041
 30
0.0
 10
147.4066035541221
 20
172.7533935436615
 30
0.0
 10
148.096312125266
 20
172.5981918896653
 30
0.0
 10
148.7934276565895
 20
172.5907849294857
 30
0.0
  0
SPLINE
  5
D7
330
B9
100
AcDbEntity
  8
Ebene 9
 62
   250
420
  2301728
370
     9
100
AcDbSpline
210
0.0
220
0.0
230
1.0
 70
     8
 71
     3
 72
     8
 73
     4
 74
     0
 42
0.0000000001
 43
0.0000000001
 40
0.0
 40
0.0
 40
0.0
 40
0.0
 40
1.0
 40
1.0
 40
1.0
 40
1.0
 10
148.7934276565895
 20
172.5907849294857
 30
0.0
 10
149.0685187125628
 20
172.6503851206984
 30
0.0
 10
149.3548063362494
 20
172.6121445355851
 30
0.0
 10
149.6257632749131
 20
172.5473766977354
 30
0.0
  0
SPLINE
  5
D8
330
B9
100
AcDbEntity
  8
Ebene 9
 62
   250
420
  2301728
370
     9
100
AcDbSpline
210
0.0
220
0.0
230
1.0
 70
     8
 71
     3
 72
     8
 73
     4
 74
     0
 42
0.0000000001
 43
0.0000000001
 40
0.0
 40
0.0
 40
0.0
 40
0.0
 40
1.0
 40
1.0
 40
1.0
 40
1.0
 10
149.6257632749131
 20
172.5473766977354
 30
0.0
 10
149.9664834431755
 20
172.5220552292143
 30
0.0
 10
150.3178834144876
 20
172.5001788584513
 30
0.0
 10
150.6658382880417
 20
172.5125812103799
 30
0.0
  0
SPLINE
  5
D9
330
B9
100
AcDbEntity
  8
Ebene 9
 62
   250
420
  2301728
370
     9
100
AcDbSpline
210
0.0
220
0.0
230
1.0
 70
     8
 71
     3
 72
     8
 73
     4
 74
     0
 42
0.0000000001
 43
0.0000000001
 40
0.0
 40
0.0
 40
0.0
 40
0.0
 40
1.0
 40
1.0
 40
1.0
 40
1.0
 10
150.6658382880417
 20
172.5125812103799
 30
0.0
 10
150.9419628733423
 20
172.4967337606933
 30
0.0
 10
151.2260111834863
 20
172.5449651293048
 30
0.0
 10
151.4978293965895
 20
172.4867429771952
 30
0.0
  0
SPLINE
  5
DA
330
B9
100
AcDbEntity
  8
Ebene 9
 62
   250
420
  2301728
370
     9
100
AcDbSpline
210
0.0
220
0.0
230
1.0
 70
     8
 71
     3
 72
     8
 73
     4
 74
     0
 42
0.0000000001
 43
0.0000000001
 40
0.0
 40
0.0
 40
0.0
 40
0.0
 40
1.0
 40
1.0
 40
1.0
 40
1.0
 10
151.4978293965895
 20
172.4867429771952
 30
0.0
 10
151.7348521223372
 20
172.5244667976449
 30
0.0
 10
151.9892725917627
 20
172.5315292480487
 30
0.0
 10
152.2257785528467
 20
172.4867429771952
 30
0.0
  0
SPLINE
  5
DB
330
B9
100
AcDbEntity
  8
Ebene 9
 62
   250
420
  2301728
370
     9
100
AcDbSpline
210
0.0
220
0.0
230
1.0
 70
     8
 71
     3
 72
    20
 73
    16
 74
     0
 42
0.0000000001
 43
0.0000000001
 40
0.0
 40
0.0
 40
0.0
 40
0.0
 40
1.0
 40
1.0
 40
1.0
 40
2.0
 40
2.0
 40
2.0
 40
3.0
 40
3.0
 40
3.0
 40
4.0
 40
4.0
 40
4.0
 40
5.0
 40
5.0
 40
5.0
 40
5.0
 10
166.3200179904438
 20
174.2289289133965
 30
0.0
 10
166.3927095531368
 20
174.2549394014691
 30
0.0
 10
166.4529987639011
 20
174.2697533218283
 30
0.0
 10
166.5122544453381
 20
174.2837059677481
 30
0.0
 10
165.1979496506757
 20
176.3406015841391
 30
0.0
 10
162.1938244057331
 20
176.3709184444091
 30
0.0
 10
159.4921787439395
 20
176.5419675480919
 30
0.0
 10
158.5675145057026
 20
176.6007064648652
 30
0.0
 10
157.1732834430555
 20
176.5447236262983
 30
0.0
 10
155.7669945382556
 20
176.4768552004665
 30
0.0
 10
150.9035500333411
 20
176.2422440431493
 30
0.0
 10
144.6327830942992
 20
177.2692276847977
 30
0.0
 10
141.4648434509655
 20
175.4338518542436
 30
0.0
 10
140.7174294923757
 20
175.0009753209557
 30
0.0
 10
140.3308895239324
 20
174.6645615248907
 30
0.0
 10
140.1083362087681
 20
173.9517707987685
 30
0.0
  0
SPLINE
  5
DC
330
B9
100
AcDbEntity
  8
Ebene 9
 62
   250
420
  2301728
370
     9
100
AcDbSpline
210
0.0
220
0.0
230
1.0
 70
     8
 71
     3
 72
     8
 73
     4
 74
     0
 42
0.0000000001
 43
0.0000000001
 40
0.0
 40
0.0
 40
0.0
 40
0.0
 40
1.0
 40
1.0
 40
1.0
 40
1.0
 10
166.5797783613941
 20
172.5821721850908
 30
0.0
 10
166.5863240471343
 20
173.1430341000869
 30
0.0
 10
166.4602334691929
 20
173.6902878789392
 30
0.0
 10
166.3200179904438
 20
174.2289289133965
 30
0.0
  0
SPLINE
  5
DD
330
B9
100
AcDbEntity
  8
Ebene 9
 62
   250
420
  2301728
370
     9
100
AcDbSpline
210
0.0
220
0.0
230
1.0
 70
     8
 71
     3
 72
     8
 73
     4
 74
     0
 42
0.0000000001
 43
0.0000000001
 40
0.0
 40
0.0
 40
0.0
 40
0.0
 40
1.0
 40
1.0
 40
1.0
 40
1.0
 10
166.3200179904438
 20
174.2289289133965
 30
0.0
 10
166.1053884001228
 20
174.1788027410181
 30
0.0
 10
165.8883472413712
 20
174.1393563716895
 30
0.0
 10
165.696110786477
 20
174.0210172637035
 30
0.0
  0
SPLINE
  5
DE
330
B9
100
AcDbEntity
  8
Ebene 9
 62
   250
420
  2301728
370
     9
100
AcDbSpline
210
0.0
220
0.0
230
1.0
 70
     8
 71
     3
 72
     8
 73
     4
 74
     0
 42
0.0000000001
 43
0.0000000001
 40
0.0
 40
0.0
 40
0.0
 40
0.0
 40
1.0
 40
1.0
 40
1.0
 40
1.0
 10
140.6285459702203
 20
172.4609047440105
 30
0.0
 10
140.6803946914777
 20
172.4867429771952
 30
0.0
 10
140.7324156676229
 20
172.5125812103799
 30
0.0
 10
140.7844366437681
 20
172.5389362082284
 30
0.0
  0
SPLINE
  5
DF
330
B9
100
AcDbEntity
  8
Ebene 9
 62
   250
420
  2301728
370
     9
100
AcDbSpline
210
0.0
220
0.0
230
1.0
 70
     8
 71
     3
 72
     8
 73
     4
 74
     0
 42
0.0000000001
 43
0.0000000001
 40
0.0
 40
0.0
 40
0.0
 40
0.0
 40
1.0
 40
1.0
 40
1.0
 40
1.0
 10
140.7844366437681
 20
172.5389362082284
 30
0.0
 10
140.7620435083413
 20
173.0085030326385
 30
0.0
 10
140.8936462426955
 20
173.4563657411736
 30
0.0
 10
140.9404995722037
 20
173.9171475663009
 30
0.0
  0
SPLINE
  5
E0
330
B9
100
AcDbEntity
  8
Ebene 9
 62
   250
420
  2301728
370
     9
100
AcDbSpline
210
0.0
220
0.0
230
1.0
 70
     8
 71
     3
 72
     8
 73
     4
 74
     0
 42
0.0000000001
 43
0.0000000001
 40
0.0
 40
0.0
 40
0.0
 40
0.0
 40
1.0
 40
1.0
 40
1.0
 40
1.0
 10
166.0337303667572
 20
172.4348942559379
 30
0.0
 10
165.841493911863
 20
172.9399455872551
 30
0.0
 10
165.8714662623572
 20
173.504597109785
 30
0.0
 10
165.696110786477
 20
174.0210172637035
 30
0.0
  0
SPLINE
  5
E1
330
B9
100
AcDbEntity
  8
Ebene 9
 62
   250
420
  2301728
370
     9
100
AcDbSpline
210
0.0
220
0.0
230
1.0
 70
     8
 71
     3
 72
     8
 73
     4
 74
     0
 42
0.0000000001
 43
0.0000000001
 40
0.0
 40
0.0
 40
0.0
 40
0.0
 40
1.0
 40
1.0
 40
1.0
 40
1.0
 10
165.696110786477
 20
174.0210172637035
 30
0.0
 10
165.5004292338247
 20
173.9075012925786
 30
0.0
 10
165.2516931756999
 20
173.9181810956283
 30
0.0
 10
165.097697305919
 20
173.7609123829774
 30
0.0
  0
SPLINE
  5
E2
330
B9
100
AcDbEntity
  8
Ebene 9
 62
   250
420
  2301728
370
     9
100
AcDbSpline
210
0.0
220
0.0
230
1.0
 70
     8
 71
     3
 72
     8
 73
     4
 74
     0
 42
0.0000000001
 43
0.0000000001
 40
0.0
 40
0.0
 40
0.0
 40
0.0
 40
1.0
 40
1.0
 40
1.0
 40
1.0
 10
140.1603571849133
 20
172.9287490195417
 30
0.0
 10
140.28765354707
 20
173.2391523275341
 30
0.0
 10
140.3208987404344
 20
173.5693649476347
 30
0.0
 10
140.3684410894942
 20
173.8997498226232
 30
0.0
  0
SPLINE
  5
E3
330
B9
100
AcDbEntity
  8
Ebene 9
 62
   250
420
  2301728
370
     9
100
AcDbSpline
210
0.0
220
0.0
230
1.0
 70
     8
 71
     3
 72
     8
 73
     4
 74
     0
 42
0.0000000001
 43
0.0000000001
 40
0.0
 40
0.0
 40
0.0
 40
0.0
 40
1.0
 40
1.0
 40
1.0
 40
1.0
 10
140.1083362087681
 20
173.9517707987685
 30
0.0
 10
139.6644353626548
 20
173.7597065987621
 30
0.0
 10
139.8599446604191
 20
173.1593983144373
 30
0.0
 10
140.1603571849133
 20
172.9287490195417
 30
0.0
  0
SPLINE
  5
E4
330
B9
100
AcDbEntity
  8
Ebene 9
 62
   250
420
  2301728
370
     9
100
AcDbSpline
210
0.0
220
0.0
230
1.0
 70
     8
 71
     3
 72
     8
 73
     4
 74
     0
 42
0.0000000001
 43
0.0000000001
 40
0.0
 40
0.0
 40
0.0
 40
0.0
 40
1.0
 40
1.0
 40
1.0
 40
1.0
 10
140.7844366437681
 20
172.5389362082284
 30
0.0
 10
141.026282506377
 20
172.5403142473315
 30
0.0
 10
141.1904414145439
 20
172.3563460270564
 30
0.0
 10
141.4433115899783
 20
172.4085392580895
 30
0.0
  0
SPLINE
  5
E5
330
B9
100
AcDbEntity
  8
Ebene 9
 62
   250
420
  2301728
370
     9
100
AcDbSpline
210
0.0
220
0.0
230
1.0
 70
     8
 71
     3
 72
     8
 73
     4
 74
     0
 42
0.0000000001
 43
0.0000000001
 40
0.0
 40
0.0
 40
0.0
 40
0.0
 40
1.0
 40
1.0
 40
1.0
 40
1.0
 10
141.4433115899783
 20
172.4085392580895
 30
0.0
 10
141.5261661910573
 20
172.8379706936194
 30
0.0
 10
141.4694943329388
 20
173.2858334021545
 30
0.0
 10
141.5645790310585
 20
173.7090636617201
 30
0.0
  0
SPLINE
  5
E6
330
B9
100
AcDbEntity
  8
Ebene 9
 62
   250
420
  2301728
370
     9
100
AcDbSpline
210
0.0
220
0.0
230
1.0
 70
     8
 71
     3
 72
     8
 73
     4
 74
     0
 42
0.0000000001
 43
0.0000000001
 40
0.0
 40
0.0
 40
0.0
 40
0.0
 40
1.0
 40
1.0
 40
1.0
 40
1.0
 10
165.3839849296056
 20
172.1487788871392
 30
0.0
 10
165.1814131814375
 20
172.6631319824029
 30
0.0
 10
165.1917484747114
 20
173.2217545838564
 30
0.0
 10
165.097697305919
 20
173.7609123829774
 30
0.0
  0
SPLINE
  5
E7
330
B9
100
AcDbEntity
  8
Ebene 9
 62
   250
420
  2301728
370
     9
100
AcDbSpline
210
0.0
220
0.0
230
1.0
 70
     8
 71
     3
 72
     8
 73
     4
 74
     0
 42
0.0000000001
 43
0.0000000001
 40
0.0
 40
0.0
 40
0.0
 40
0.0
 40
1.0
 40
1.0
 40
1.0
 40
1.0
 10
165.097697305919
 20
173.7609123829774
 30
0.0
 10
164.8603300703955
 20
173.7803771853098
 30
0.0
 10
164.6856636140668
 20
173.6260368057532
 30
0.0
 10
164.4476073589916
 20
173.6046771996538
 30
0.0
  0
SPLINE
  5
E8
330
B9
100
AcDbEntity
  8
Ebene 9
 62
   250
420
  2301728
370
     9
100
AcDbSpline
210
0.0
220
0.0
230
1.0
 70
     8
 71
     3
 72
     8
 73
     4
 74
     0
 42
0.0000000001
 43
0.0000000001
 40
0.0
 40
0.0
 40
0.0
 40
0.0
 40
1.0
 40
1.0
 40
1.0
 40
1.0
 10
141.4433115899783
 20
172.4085392580895
 30
0.0
 10
141.627968829805
 20
172.2593665251698
 30
0.0
 10
141.9306206678419
 20
172.2765920139596
 30
0.0
 10
142.1626480018407
 20
172.2786590726143
 30
0.0
  0
SPLINE
  5
E9
330
B9
100
AcDbEntity
  8
Ebene 9
 62
   250
420
  2301728
370
     9
100
AcDbSpline
210
0.0
220
0.0
230
1.0
 70
     8
 71
     3
 72
     8
 73
     4
 74
     0
 42
0.0000000001
 43
0.0000000001
 40
0.0
 40
0.0
 40
0.0
 40
0.0
 40
1.0
 40
1.0
 40
1.0
 40
1.0
 10
142.1626480018407
 20
172.2786590726143
 30
0.0
 10
142.3404150461515
 20
172.6639932568424
 30
0.0
 10
142.1504179047999
 20
173.1094443969468
 30
0.0
 10
142.2927004422037
 20
173.5009797571392
 30
0.0
  0
SPLINE
  5
EA
330
B9
100
AcDbEntity
  8
Ebene 9
 62
   250
420
  2301728
370
     9
100
AcDbSpline
210
0.0
220
0.0
230
1.0
 70
     8
 71
     3
 72
     8
 73
     4
 74
     0
 42
0.0000000001
 43
0.0000000001
 40
0.0
 40
0.0
 40
0.0
 40
0.0
 40
1.0
 40
1.0
 40
1.0
 40
1.0
 10
142.1626480018407
 20
172.2786590726143
 30
0.0
 10
142.3032079903655
 20
172.0278559558348
 30
0.0
 10
142.5986251231107
 20
172.1487788871392
 30
0.0
 10
142.8125656938801
 20
172.0445646799609
 30
0.0
  0
SPLINE
  5
EB
330
B9
100
AcDbEntity
  8
Ebene 9
 62
   250
420
  2301728
370
     9
100
AcDbSpline
210
0.0
220
0.0
230
1.0
 70
     8
 71
     3
 72
     8
 73
     4
 74
     0
 42
0.0000000001
 43
0.0000000001
 40
0.0
 40
0.0
 40
0.0
 40
0.0
 40
1.0
 40
1.0
 40
1.0
 40
1.0
 10
142.8125656938801
 20
172.0445646799609
 30
0.0
 10
142.9172966657222
 20
172.4762354290335
 30
0.0
 10
142.8949035302954
 20
172.929954803757
 30
0.0
 10
142.942962644019
 20
173.3707550618882
 30
0.0
  0
SPLINE
  5
EC
330
B9
100
AcDbEntity
  8
Ebene 9
 62
   250
420
  2301728
370
     9
100
AcDbSpline
210
0.0
220
0.0
230
1.0
 70
     8
 71
     3
 72
     8
 73
     4
 74
     0
 42
0.0000000001
 43
0.0000000001
 40
0.0
 40
0.0
 40
0.0
 40
0.0
 40
1.0
 40
1.0
 40
1.0
 40
1.0
 10
164.759733215863
 20
172.0445646799609
 30
0.0
 10
164.5471706841967
 20
172.5272228758513
 30
0.0
 10
164.6202067566655
 20
173.0997981232245
 30
0.0
 10
164.4476073589916
 20
173.6046771996538
 30
0.0
  0
SPLINE
  5
ED
330
B9
100
AcDbEntity
  8
Ebene 9
 62
   250
420
  2301728
370
     9
100
AcDbSpline
210
0.0
220
0.0
230
1.0
 70
     8
 71
     3
 72
     8
 73
     4
 74
     0
 42
0.0000000001
 43
0.0000000001
 40
0.0
 40
0.0
 40
0.0
 40
0.0
 40
1.0
 40
1.0
 40
1.0
 40
1.0
 10
164.4476073589916
 20
173.6046771996538
 30
0.0
 10
164.2105846332439
 20
173.5085589722067
 30
0.0
 10
163.963571123998
 20
173.4637727013532
 30
0.0
 10
163.7193136929585
 20
173.3967655499608
 30
0.0
  0
SPLINE
  5
EE
330
B9
100
AcDbEntity
  8
Ebene 9
 62
   250
420
  2301728
370
     9
100
AcDbSpline
210
0.0
220
0.0
230
1.0
 70
     8
 71
     3
 72
     8
 73
     4
 74
     0
 42
0.0000000001
 43
0.0000000001
 40
0.0
 40
0.0
 40
0.0
 40
0.0
 40
1.0
 40
1.0
 40
1.0
 40
1.0
 10
142.8125656938801
 20
172.0445646799609
 30
0.0
 10
143.0492439098521
 20
171.9272591013023
 30
0.0
 10
143.2998747717438
 20
171.8564623423761
 30
0.0
 10
143.5668698479859
 20
171.888846261301
 30
0.0
  0
SPLINE
  5
EF
330
B9
100
AcDbEntity
  8
Ebene 9
 62
   250
420
  2301728
370
     9
100
AcDbSpline
210
0.0
220
0.0
230
1.0
 70
     8
 71
     3
 72
     8
 73
     4
 74
     0
 42
0.0000000001
 43
0.0000000001
 40
0.0
 40
0.0
 40
0.0
 40
0.0
 40
1.0
 40
1.0
 40
1.0
 40
1.0
 10
143.5668698479859
 20
171.888846261301
 30
0.0
 10
143.664710624312
 20
172.3272349510016
 30
0.0
 10
143.7196599335514
 20
172.755805112092
 30
0.0
 10
143.7139755222508
 20
173.2236493876233
 30
0.0
  0
SPLINE
  5
F0
330
B9
100
AcDbEntity
  8
Ebene 9
 62
   250
420
  2301728
370
     9
100
AcDbSpline
210
0.0
220
0.0
230
1.0
 70
     8
 71
     3
 72
     8
 73
     4
 74
     0
 42
0.0000000001
 43
0.0000000001
 40
0.0
 40
0.0
 40
0.0
 40
0.0
 40
1.0
 40
1.0
 40
1.0
 40
1.0
 10
163.9277421073152
 20
171.8366530302679
 30
0.0
 10
163.7847705503598
 20
172.341704361585
 30
0.0
 10
163.694853498877
 20
172.8586412801672
 30
0.0
 10
163.7193136929585
 20
173.3967655499608
 30
0.0
  0
SPLINE
  5
F1
330
B9
100
AcDbEntity
  8
Ebene 9
 62
   250
420
  2301728
370
     9
100
AcDbSpline
210
0.0
220
0.0
230
1.0
 70
     8
 71
     3
 72
     8
 73
     4
 74
     0
 42
0.0000000001
 43
0.0000000001
 40
0.0
 40
0.0
 40
0.0
 40
0.0
 40
1.0
 40
1.0
 40
1.0
 40
1.0
 10
163.7193136929585
 20
173.3967655499608
 30
0.0
 10
163.2015154999369
 20
173.193677037129
 30
0.0
 10
162.6296292721153
 20
173.2856611472666
 30
0.0
 10
162.1073524520083
 20
173.11082243605
 30
0.0
  0
SPLINE
  5
F2
330
B9
100
AcDbEntity
  8
Ebene 9
 62
   250
420
  2301728
370
     9
100
AcDbSpline
210
0.0
220
0.0
230
1.0
 70
     8
 71
     3
 72
    11
 73
     7
 74
     0
 42
0.0000000001
 43
0.0000000001
 40
0.0
 40
0.0
 40
0.0
 40
0.0
 40
1.0
 40
1.0
 40
1.0
 40
2.0
 40
2.0
 40
2.0
 40
2.0
 10
143.5668698479859
 20
171.888846261301
 30
0.0
 10
143.580133474354
 20
171.86679763565
 30
0.0
 10
143.5937416104979
 20
171.8447490099991
 30
0.0
 10
143.607177491754
 20
171.8227003843481
 30
0.0
 10
143.8963934485349
 20
171.7875603872169
 30
0.0
 10
144.1769966609209
 20
171.5772371690934
 30
0.0
 10
144.4768924207514
 20
171.7326110779774
 30
0.0
  0
SPLINE
  5
F3
330
B9
100
AcDbEntity
  8
Ebene 9
 62
   250
420
  2301728
370
     9
100
AcDbSpline
210
0.0
220
0.0
230
1.0
 70
     8
 71
     3
 72
     8
 73
     4
 74
     0
 42
0.0000000001
 43
0.0000000001
 40
0.0
 40
0.0
 40
0.0
 40
0.0
 40
1.0
 40
1.0
 40
1.0
 40
1.0
 10
144.4768924207514
 20
171.7326110779774
 30
0.0
 10
144.5461388856865
 20
172.193048393329
 30
0.0
 10
144.6308882905323
 20
172.6235133581863
 30
0.0
 10
144.6849763253323
 20
173.0849842028653
 30
0.0
  0
SPLINE
  5
F4
330
B9
100
AcDbEntity
  8
Ebene 9
 62
   250
420
  2301728
370
     9
100
AcDbSpline
210
0.0
220
0.0
230
1.0
 70
     8
 71
     3
 72
     8
 73
     4
 74
     0
 42
0.0000000001
 43
0.0000000001
 40
0.0
 40
0.0
 40
0.0
 40
0.0
 40
1.0
 40
1.0
 40
1.0
 40
1.0
 10
162.2113944042987
 20
171.6025586376144
 30
0.0
 10
162.2699610661841
 20
172.1205290855239
 30
0.0
 10
162.0294932426783
 20
172.5897514001583
 30
0.0
 10
162.1073524520083
 20
173.11082243605
 30
0.0
  0
SPLINE
  5
F5
330
B9
100
AcDbEntity
  8
Ebene 9
 62
   250
420
  2301728
370
     9
100
AcDbSpline
210
0.0
220
0.0
230
1.0
 70
     8
 71
     3
 72
     8
 73
     4
 74
     0
 42
0.0000000001
 43
0.0000000001
 40
0.0
 40
0.0
 40
0.0
 40
0.0
 40
1.0
 40
1.0
 40
1.0
 40
1.0
 10
162.1073524520083
 20
173.11082243605
 30
0.0
 10
161.8441469833
 20
173.1761070385634
 30
0.0
 10
161.5857646514529
 20
173.0184938161366
 30
0.0
 10
161.32703780983
 20
172.9809422505749
 30
0.0
  0
SPLINE
  5
F6
330
B9
100
AcDbEntity
  8
Ebene 9
 62
   250
420
  2301728
370
     9
100
AcDbSpline
210
0.0
220
0.0
230
1.0
 70
     8
 71
     3
 72
     8
 73
     4
 74
     0
 42
0.0000000001
 43
0.0000000001
 40
0.0
 40
0.0
 40
0.0
 40
0.0
 40
1.0
 40
1.0
 40
1.0
 40
1.0
 10
144.4768924207514
 20
171.7326110779774
 30
0.0
 10
144.7826448467705
 20
171.4904207055927
 30
0.0
 10
145.1800368731514
 20
171.6461391242526
 30
0.0
 10
145.5169674338801
 20
171.5246994282844
 30
0.0
  0
SPLINE
  5
F7
330
B9
100
AcDbEntity
  8
Ebene 9
 62
   250
420
  2301728
370
     9
100
AcDbSpline
210
0.0
220
0.0
230
1.0
 70
     8
 71
     3
 72
     8
 73
     4
 74
     0
 42
0.0000000001
 43
0.0000000001
 40
0.0
 40
0.0
 40
0.0
 40
0.0
 40
1.0
 40
1.0
 40
1.0
 40
1.0
 10
145.5169674338801
 20
171.5246994282844
 30
0.0
 10
145.5891422319094
 20
171.9827251752054
 30
0.0
 10
145.7255681031247
 20
172.4266260213188
 30
0.0
 10
145.6730303623157
 20
172.902910786357
 30
0.0
  0
SPLINE
  5
F8
330
B9
100
AcDbEntity
  8
Ebene 9
 62
   250
420
  2301728
370
     9
100
AcDbSpline
210
0.0
220
0.0
230
1.0
 70
     8
 71
     3
 72
     8
 73
     4
 74
     0
 42
0.0000000001
 43
0.0000000001
 40
0.0
 40
0.0
 40
0.0
 40
0.0
 40
1.0
 40
1.0
 40
1.0
 40
1.0
 10
145.5169674338801
 20
171.5246994282844
 30
0.0
 10
145.8649223074342
 20
171.4370216903443
 30
0.0
 10
146.2526680600928
 20
171.4623431588653
 30
0.0
 10
146.6092356780418
 20
171.4986889402118
 30
0.0
  0
SPLINE
  5
F9
330
B9
100
AcDbEntity
  8
Ebene 9
 62
   250
420
  2301728
370
     9
100
AcDbSpline
210
0.0
220
0.0
230
1.0
 70
     8
 71
     3
 72
     8
 73
     4
 74
     0
 42
0.0000000001
 43
0.0000000001
 40
0.0
 40
0.0
 40
0.0
 40
0.0
 40
1.0
 40
1.0
 40
1.0
 40
1.0
 10
146.6092356780418
 20
171.4986889402118
 30
0.0
 10
146.5901153854851
 20
171.9246752779838
 30
0.0
 10
146.6125085209119
 20
172.343426910464
 30
0.0
 10
146.7131053754444
 20
172.7556328572041
 30
0.0
  0
SPLINE
  5
FA
330
B9
100
AcDbEntity
  8
Ebene 9
 62
   250
420
  2301728
370
     9
100
AcDbSpline
210
0.0
220
0.0
230
1.0
 70
     8
 71
     3
 72
     8
 73
     4
 74
     0
 42
0.0000000001
 43
0.0000000001
 40
0.0
 40
0.0
 40
0.0
 40
0.0
 40
1.0
 40
1.0
 40
1.0
 40
1.0
 10
161.3790587859752
 20
171.4986889402118
 30
0.0
 10
161.3490864354809
 20
171.9908211549367
 30
0.0
 10
161.4417595651701
 20
172.5010401328908
 30
0.0
 10
161.32703780983
 20
172.9809422505749
 30
0.0
  0
SPLINE
  5
FB
330
B9
100
AcDbEntity
  8
Ebene 9
 62
   250
420
  2301728
370
     9
100
AcDbSpline
210
0.0
220
0.0
230
1.0
 70
     8
 71
     3
 72
     8
 73
     4
 74
     0
 42
0.0000000001
 43
0.0000000001
 40
0.0
 40
0.0
 40
0.0
 40
0.0
 40
1.0
 40
1.0
 40
1.0
 40
1.0
 10
161.32703780983
 20
172.9809422505749
 30
0.0
 10
161.0738231246198
 20
172.9003269630385
 30
0.0
 10
160.7875355009332
 20
172.9389120579277
 30
0.0
 10
160.5474121872032
 20
172.7986965791787
 30
0.0
  0
SPLINE
  5
FC
330
B9
100
AcDbEntity
  8
Ebene 9
 62
   250
420
  2301728
370
     9
100
AcDbSpline
210
0.0
220
0.0
230
1.0
 70
    24
 71
     3
 72
     8
 73
     4
 74
     0
 42
0.0000000001
 43
0.0000000001
 40
0.0
 40
0.0
 40
0.0
 40
0.0
 40
1.0
 40
1.0
 40
1.0
 40
1.0
 10
160.5474121872032
 20
171.3946469879214
 30
0.0
 10
160.5474121872032
 20
171.8624912634526
 30
0.0
 10
160.5474121872032
 20
172.3306800487596
 30
0.0
 10
160.5474121872032
 20
172.7986965791787
 30
0.0
  0
SPLINE
  5
FD
330
B9
100
AcDbEntity
  8
Ebene 9
 62
   250
420
  2301728
370
     9
100
AcDbSpline
210
0.0
220
0.0
230
1.0
 70
     8
 71
     3
 72
     8
 73
     4
 74
     0
 42
0.0000000001
 43
0.0000000001
 40
0.0
 40
0.0
 40
0.0
 40
0.0
 40
1.0
 40
1.0
 40
1.0
 40
1.0
 10
160.5474121872032
 20
172.7986965791787
 30
0.0
 10
160.169140453379
 20
172.8381429485073
 30
0.0
 10
159.7750212698682
 20
172.7754421693124
 30
0.0
 10
159.4029507120083
 20
172.6948268817761
 30
0.0
  0
SPLINE
  5
FE
330
B9
100
AcDbEntity
  8
Ebene 9
 62
   250
420
  2301728
370
     9
100
AcDbSpline
210
0.0
220
0.0
230
1.0
 70
     8
 71
     3
 72
     8
 73
     4
 74
     0
 42
0.0000000001
 43
0.0000000001
 40
0.0
 40
0.0
 40
0.0
 40
0.0
 40
1.0
 40
1.0
 40
1.0
 40
1.0
 10
146.6092356780418
 20
171.4986889402118
 30
0.0
 10
147.3313281681106
 20
171.4563142377889
 30
0.0
 10
148.0718519311845
 20
171.4545916889099
 30
0.0
 10
148.7934276565895
 20
171.4986889402118
 30
0.0
  0
SPLINE
  5
FF
330
B9
100
AcDbEntity
  8
Ebene 9
 62
   250
420
  2301728
370
     9
100
AcDbSpline
210
0.0
220
0.0
230
1.0
 70
    24
 71
     3
 72
     8
 73
     4
 74
     0
 42
0.0000000001
 43
0.0000000001
 40
0.0
 40
0.0
 40
0.0
 40
0.0
 40
1.0
 40
1.0
 40
1.0
 40
1.0
 10
148.7934276565895
 20
171.4986889402118
 30
0.0
 10
148.7934276565895
 20
171.8624912634526
 30
0.0
 10
148.7934276565895
 20
172.2266380964691
 30
0.0
 10
148.7934276565895
 20
172.5907849294857
 30
0.0
  0
SPLINE
  5
100
330
B9
100
AcDbEntity
  8
Ebene 9
 62
   250
420
  2301728
370
     9
100
AcDbSpline
210
0.0
220
0.0
230
1.0
 70
     8
 71
     3
 72
     8
 73
     4
 74
     0
 42
0.0000000001
 43
0.0000000001
 40
0.0
 40
0.0
 40
0.0
 40
0.0
 40
1.0
 40
1.0
 40
1.0
 40
1.0
 10
159.5586691306682
 20
171.4208297308819
 30
0.0
 10
159.4666850205306
 20
171.8430264611201
 30
0.0
 10
159.5528124644797
 20
172.2836544643634
 30
0.0
 10
159.4029507120083
 20
172.6948268817761
 30
0.0
  0
SPLINE
  5
101
330
B9
100
AcDbEntity
  8
Ebene 9
 62
   250
420
  2301728
370
     9
100
AcDbSpline
210
0.0
220
0.0
230
1.0
 70
     8
 71
     3
 72
     8
 73
     4
 74
     0
 42
0.0000000001
 43
0.0000000001
 40
0.0
 40
0.0
 40
0.0
 40
0.0
 40
1.0
 40
1.0
 40
1.0
 40
1.0
 10
159.4029507120083
 20
172.6948268817761
 30
0.0
 10
159.1142515198912
 20
172.7270385458131
 30
0.0
 10
158.7993695848135
 20
172.7595947196258
 30
0.0
 10
158.5192831370912
 20
172.6688163937035
 30
0.0
  0
SPLINE
  5
102
330
B9
100
AcDbEntity
  8
Ebene 9
 62
   250
420
  2301728
370
     9
100
AcDbSpline
210
0.0
220
0.0
230
1.0
 70
     8
 71
     3
 72
     8
 73
     4
 74
     0
 42
0.0000000001
 43
0.0000000001
 40
0.0
 40
0.0
 40
0.0
 40
0.0
 40
1.0
 40
1.0
 40
1.0
 40
1.0
 10
148.7934276565895
 20
171.4986889402118
 30
0.0
 10
149.0302781274494
 20
171.4707836483723
 30
0.0
 10
149.289521733736
 20
171.4378829647838
 30
0.0
 10
149.5215490677347
 20
171.4986889402118
 30
0.0
  0
SPLINE
  5
103
330
B9
100
AcDbEntity
  8
Ebene 9
 62
   250
420
  2301728
370
     9
100
AcDbSpline
210
0.0
220
0.0
230
1.0
 70
     8
 71
     3
 72
     8
 73
     4
 74
     0
 42
0.0000000001
 43
0.0000000001
 40
0.0
 40
0.0
 40
0.0
 40
0.0
 40
1.0
 40
1.0
 40
1.0
 40
1.0
 10
149.5215490677347
 20
171.4986889402118
 30
0.0
 10
149.4473072110507
 20
171.8731710665023
 30
0.0
 10
149.6388546463933
 20
172.1844356489341
 30
0.0
 10
149.6257632749131
 20
172.5473766977354
 30
0.0
  0
SPLINE
  5
104
330
B9
100
AcDbEntity
  8
Ebene 9
 62
   250
420
  2301728
370
     9
100
AcDbSpline
210
0.0
220
0.0
230
1.0
 70
    24
 71
     3
 72
     8
 73
     4
 74
     0
 42
0.0000000001
 43
0.0000000001
 40
0.0
 40
0.0
 40
0.0
 40
0.0
 40
1.0
 40
1.0
 40
1.0
 40
1.0
 10
155.3466926117842
 20
171.4378829647838
 30
0.0
 10
155.3466926117842
 20
171.8221836196844
 30
0.0
 10
155.3466926117842
 20
172.206656529473
 30
0.0
 10
155.3466926117842
 20
172.5907849294857
 30
0.0
  0
SPLINE
  5
105
330
B9
100
AcDbEntity
  8
Ebene 9
 62
   250
420
  2301728
370
     9
100
AcDbSpline
210
0.0
220
0.0
230
1.0
 70
     8
 71
     3
 72
     8
 73
     4
 74
     0
 42
0.0000000001
 43
0.0000000001
 40
0.0
 40
0.0
 40
0.0
 40
0.0
 40
1.0
 40
1.0
 40
1.0
 40
1.0
 10
155.3466926117842
 20
172.5907849294857
 30
0.0
 10
155.0235424420874
 20
172.6219630641952
 30
0.0
 10
154.6735205098785
 20
172.657792080878
 30
0.0
 10
154.358294065025
 20
172.5646021865252
 30
0.0
  0
SPLINE
  5
106
330
B9
100
AcDbEntity
  8
Ebene 9
 62
   250
420
  2301728
370
     9
100
AcDbSpline
210
0.0
220
0.0
230
1.0
 70
     8
 71
     3
 72
     8
 73
     4
 74
     0
 42
0.0000000001
 43
0.0000000001
 40
0.0
 40
0.0
 40
0.0
 40
0.0
 40
1.0
 40
1.0
 40
1.0
 40
1.0
 10
156.2307046964772
 20
171.4208297308819
 30
0.0
 10
156.1252847050836
 20
171.7977234256029
 30
0.0
 10
156.2027994046377
 20
172.2023501572755
 30
0.0
 10
156.1783392105562
 20
172.5907849294857
 30
0.0
  0
SPLINE
  5
107
330
B9
100
AcDbEntity
  8
Ebene 9
 62
   250
420
  2301728
370
     9
100
AcDbSpline
210
0.0
220
0.0
230
1.0
 70
     8
 71
     3
 72
     8
 73
     4
 74
     0
 42
0.0000000001
 43
0.0000000001
 40
0.0
 40
0.0
 40
0.0
 40
0.0
 40
1.0
 40
1.0
 40
1.0
 40
1.0
 10
156.1783392105562
 20
172.5907849294857
 30
0.0
 10
155.9072100170046
 20
172.629197769487
 30
0.0
 10
155.6181663151116
 20
172.635915710115
 30
0.0
 10
155.3466926117842
 20
172.5907849294857
 30
0.0
  0
SPLINE
  5
108
330
B9
100
AcDbEntity
  8
Ebene 9
 62
   250
420
  2301728
370
     9
100
AcDbSpline
210
0.0
220
0.0
230
1.0
 70
     8
 71
     3
 72
     8
 73
     4
 74
     0
 42
0.0000000001
 43
0.0000000001
 40
0.0
 40
0.0
 40
0.0
 40
0.0
 40
1.0
 40
1.0
 40
1.0
 40
1.0
 10
157.9470523994937
 20
171.3340132673813
 30
0.0
 10
157.9225922054122
 20
171.7818759759163
 30
0.0
 10
157.7799651582326
 20
172.2088958430156
 30
0.0
 10
157.7386239851371
 20
172.6514186500258
 30
0.0
  0
SPLINE
  5
109
330
B9
100
AcDbEntity
  8
Ebene 9
 62
   250
420
  2301728
370
     9
100
AcDbSpline
210
0.0
220
0.0
230
1.0
 70
     8
 71
     3
 72
     8
 73
     4
 74
     0
 42
0.0000000001
 43
0.0000000001
 40
0.0
 40
0.0
 40
0.0
 40
0.0
 40
1.0
 40
1.0
 40
1.0
 40
1.0
 10
157.7386239851371
 20
172.6514186500258
 30
0.0
 10
157.2218593214428
 20
172.6205850250921
 30
0.0
 10
156.6999270111116
 20
172.6216185544195
 30
0.0
 10
156.1783392105562
 20
172.5907849294857
 30
0.0
  0
SPLINE
  5
10A
330
B9
100
AcDbEntity
  8
Ebene 9
 62
   250
420
  2301728
370
     9
100
AcDbSpline
210
0.0
220
0.0
230
1.0
 70
     8
 71
     3
 72
     8
 73
     4
 74
     0
 42
0.0000000001
 43
0.0000000001
 40
0.0
 40
0.0
 40
0.0
 40
0.0
 40
1.0
 40
1.0
 40
1.0
 40
1.0
 10
158.6753460655268
 20
171.3340132673813
 30
0.0
 10
158.697050181402
 20
171.7851488187864
 30
0.0
 10
158.6305597946733
 20
172.235250840864
 30
0.0
 10
158.5192831370912
 20
172.6688163937035
 30
0.0
  0
SPLINE
  5
10B
330
B9
100
AcDbEntity
  8
Ebene 9
 62
   250
420
  2301728
370
     9
100
AcDbSpline
210
0.0
220
0.0
230
1.0
 70
     8
 71
     3
 72
     8
 73
     4
 74
     0
 42
0.0000000001
 43
0.0000000001
 40
0.0
 40
0.0
 40
0.0
 40
0.0
 40
1.0
 40
1.0
 40
1.0
 40
1.0
 10
158.5192831370912
 20
172.6688163937035
 30
0.0
 10
158.2591782563651
 20
172.6589978650933
 30
0.0
 10
157.9963172974326
 20
172.6896592351392
 30
0.0
 10
157.7386239851371
 20
172.6514186500258
 30
0.0
  0
SPLINE
  5
10C
330
B9
100
AcDbEntity
  8
Ebene 9
 62
   250
420
  2301728
370
     9
100
AcDbSpline
210
0.0
220
0.0
230
1.0
 70
     8
 71
     3
 72
     8
 73
     4
 74
     0
 42
0.0000000001
 43
0.0000000001
 40
0.0
 40
0.0
 40
0.0
 40
0.0
 40
1.0
 40
1.0
 40
1.0
 40
1.0
 10
140.5505145060025
 20
170.7705675290666
 30
0.0
 10
148.7954947152443
 20
169.1965023634539
 30
0.0
 10
157.5515551768797
 20
169.8932733850017
 30
0.0
 10
165.7477872528464
 20
170.8485989932845
 30
0.0
  0
SPLINE
  5
10D
330
B9
100
AcDbEntity
  8
Ebene 9
 62
   250
420
  2301728
370
     9
100
AcDbSpline
210
0.0
220
0.0
230
1.0
 70
     8
 71
     3
 72
     8
 73
     4
 74
     0
 42
0.0000000001
 43
0.0000000001
 40
0.0
 40
0.0
 40
0.0
 40
0.0
 40
1.0
 40
1.0
 40
1.0
 40
1.0
 10
166.6665948248948
 20
170.7619547846717
 30
0.0
 10
166.6838203136846
 20
171.3257450327621
 30
0.0
 10
167.2753435987266
 20
172.235250840864
 30
0.0
 10
166.5797783613941
 20
172.5821721850908
 30
0.0
  0
SPLINE
  5
10E
330
B9
100
AcDbEntity
  8
Ebene 9
 62
   250
420
  2301728
370
     9
100
AcDbSpline
210
0.0
220
0.0
230
1.0
 70
     8
 71
     3
 72
     8
 73
     4
 74
     0
 42
0.0000000001
 43
0.0000000001
 40
0.0
 40
0.0
 40
0.0
 40
0.0
 40
1.0
 40
1.0
 40
1.0
 40
1.0
 10
166.5797783613941
 20
172.5821721850908
 30
0.0
 10
166.4058009246171
 20
172.5065522893035
 30
0.0
 10
166.2159760381534
 20
172.4805418012309
 30
0.0
 10
166.0337303667572
 20
172.4348942559379
 30
0.0
  0
SPLINE
  5
10F
330
B9
100
AcDbEntity
  8
Ebene 9
 62
   250
420
  2301728
370
     9
100
AcDbSpline
210
0.0
220
0.0
230
1.0
 70
     8
 71
     3
 72
     8
 73
     4
 74
     0
 42
0.0000000001
 43
0.0000000001
 40
0.0
 40
0.0
 40
0.0
 40
0.0
 40
1.0
 40
1.0
 40
1.0
 40
1.0
 10
166.0337303667572
 20
172.4348942559379
 30
0.0
 10
165.8769784187699
 20
172.2452416243621
 30
0.0
 10
165.6168735380438
 20
172.1823685902793
 30
0.0
 10
165.3839849296056
 20
172.1487788871392
 30
0.0
  0
SPLINE
  5
110
330
B9
100
AcDbEntity
  8
Ebene 9
 62
   250
420
  2301728
370
     9
100
AcDbSpline
210
0.0
220
0.0
230
1.0
 70
     8
 71
     3
 72
     8
 73
     4
 74
     0
 42
0.0000000001
 43
0.0000000001
 40
0.0
 40
0.0
 40
0.0
 40
0.0
 40
1.0
 40
1.0
 40
1.0
 40
1.0
 10
165.3839849296056
 20
172.1487788871392
 30
0.0
 10
165.1852027889713
 20
172.0691971289303
 30
0.0
 10
164.9733292768566
 20
172.0335403671354
 30
0.0
 10
164.759733215863
 20
172.0445646799609
 30
0.0
  0
SPLINE
  5
111
330
B9
100
AcDbEntity
  8
Ebene 9
 62
   250
420
  2301728
370
     9
100
AcDbSpline
210
0.0
220
0.0
230
1.0
 70
     8
 71
     3
 72
     8
 73
     4
 74
     0
 42
0.0000000001
 43
0.0000000001
 40
0.0
 40
0.0
 40
0.0
 40
0.0
 40
1.0
 40
1.0
 40
1.0
 40
1.0
 10
164.759733215863
 20
172.0445646799609
 30
0.0
 10
164.5426920571114
 20
171.8402703829137
 30
0.0
 10
164.2092065941407
 20
171.8490553821965
 30
0.0
 10
163.9277421073152
 20
171.8366530302679
 30
0.0
  0
SPLINE
  5
112
330
B9
100
AcDbEntity
  8
Ebene 9
 62
   250
420
  2301728
370
     9
100
AcDbSpline
210
0.0
220
0.0
230
1.0
 70
     8
 71
     3
 72
     8
 73
     4
 74
     0
 42
0.0000000001
 43
0.0000000001
 40
0.0
 40
0.0
 40
0.0
 40
0.0
 40
1.0
 40
1.0
 40
1.0
 40
1.0
 10
163.9277421073152
 20
171.8366530302679
 30
0.0
 10
163.3624015652337
 20
171.7295104899953
 30
0.0
 10
162.8036067088923
 20
171.5636290329494
 30
0.0
 10
162.2113944042987
 20
171.6025586376144
 30
0.0
  0
SPLINE
  5
113
330
B9
100
AcDbEntity
  8
Ebene 9
 62
   250
420
  2301728
370
     9
100
AcDbSpline
210
0.0
220
0.0
230
1.0
 70
     8
 71
     3
 72
     8
 73
     4
 74
     0
 42
0.0000000001
 43
0.0000000001
 40
0.0
 40
0.0
 40
0.0
 40
0.0
 40
1.0
 40
1.0
 40
1.0
 40
1.0
 10
162.2113944042987
 20
171.6025586376144
 30
0.0
 10
161.9437103085051
 20
171.5198762914233
 30
0.0
 10
161.6625903314554
 20
171.4142840451418
 30
0.0
 10
161.3790587859752
 20
171.4986889402118
 30
0.0
  0
SPLINE
  5
114
330
B9
100
AcDbEntity
  8
Ebene 9
 62
   250
420
  2301728
370
     9
100
AcDbSpline
210
0.0
220
0.0
230
1.0
 70
     8
 71
     3
 72
     8
 73
     4
 74
     0
 42
0.0000000001
 43
0.0000000001
 40
0.0
 40
0.0
 40
0.0
 40
0.0
 40
1.0
 40
1.0
 40
1.0
 40
1.0
 10
161.3790587859752
 20
171.4986889402118
 30
0.0
 10
161.1337678256083
 20
171.3440040508794
 30
0.0
 10
160.8230200078401
 20
171.3433150313278
 30
0.0
 10
160.5474121872032
 20
171.3946469879214
 30
0.0
  0
SPLINE
  5
115
330
B9
100
AcDbEntity
  8
Ebene 9
 62
   250
420
  2301728
370
     9
100
AcDbSpline
210
0.0
220
0.0
230
1.0
 70
     8
 71
     3
 72
     8
 73
     4
 74
     0
 42
0.0000000001
 43
0.0000000001
 40
0.0
 40
0.0
 40
0.0
 40
0.0
 40
1.0
 40
1.0
 40
1.0
 40
1.0
 10
160.5474121872032
 20
171.3946469879214
 30
0.0
 10
160.2239175077306
 20
171.3632965983239
 30
0.0
 10
159.8742400852975
 20
171.327639836529
 30
0.0
 10
159.5586691306682
 20
171.4208297308819
 30
0.0
  0
SPLINE
  5
116
330
B9
100
AcDbEntity
  8
Ebene 9
 62
   250
420
  2301728
370
     9
100
AcDbSpline
210
0.0
220
0.0
230
1.0
 70
     8
 71
     3
 72
     8
 73
     4
 74
     0
 42
0.0000000001
 43
0.0000000001
 40
0.0
 40
0.0
 40
0.0
 40
0.0
 40
1.0
 40
1.0
 40
1.0
 40
1.0
 10
159.5586691306682
 20
171.4208297308819
 30
0.0
 10
159.2723815069816
 20
171.3650191472029
 30
0.0
 10
158.9705909433842
 20
171.290605035631
 30
0.0
 10
158.6753460655268
 20
171.3340132673813
 30
0.0
  0
SPLINE
  5
117
330
B9
100
AcDbEntity
  8
Ebene 9
 62
   250
420
  2301728
370
     9
100
AcDbSpline
210
0.0
220
0.0
230
1.0
 70
     8
 71
     3
 72
     8
 73
     4
 74
     0
 42
0.0000000001
 43
0.0000000001
 40
0.0
 40
0.0
 40
0.0
 40
0.0
 40
1.0
 40
1.0
 40
1.0
 40
1.0
 10
158.6753460655268
 20
171.3340132673813
 30
0.0
 10
158.4345337322453
 20
171.3088640537482
 30
0.0
 10
158.1868312034479
 20
171.304040916887
 30
0.0
 10
157.9470523994937
 20
171.3340132673813
 30
0.0
  0
SPLINE
  5
118
330
B9
100
AcDbEntity
  8
Ebene 9
 62
   250
420
  2301728
370
     9
100
AcDbSpline
210
0.0
220
0.0
230
1.0
 70
     8
 71
     3
 72
     8
 73
     4
 74
     0
 42
0.0000000001
 43
0.0000000001
 40
0.0
 40
0.0
 40
0.0
 40
0.0
 40
1.0
 40
1.0
 40
1.0
 40
1.0
 10
157.9470523994937
 20
171.3340132673813
 30
0.0
 10
157.3779222498785
 20
171.3254005229864
 30
0.0
 10
156.7926001408008
 20
171.3498607170679
 30
0.0
 10
156.2307046964772
 20
171.4208297308819
 30
0.0
  0
SPLINE
  5
119
330
B9
100
AcDbEntity
  8
Ebene 9
 62
   250
420
  2301728
370
     9
100
AcDbSpline
210
0.0
220
0.0
230
1.0
 70
     8
 71
     3
 72
     8
 73
     4
 74
     0
 42
0.0000000001
 43
0.0000000001
 40
0.0
 40
0.0
 40
0.0
 40
0.0
 40
1.0
 40
1.0
 40
1.0
 40
1.0
 10
156.2307046964772
 20
171.4208297308819
 30
0.0
 10
155.9457951118938
 20
171.3205773861252
 30
0.0
 10
155.6336692550225
 20
171.3731151269341
 30
0.0
 10
155.3466926117842
 20
171.4378829647838
 30
0.0
  0
SPLINE
  5
11A
330
B9
100
AcDbEntity
  8
Ebene 9
 62
   250
420
  2301728
370
     9
100
AcDbSpline
210
0.0
220
0.0
230
1.0
 70
     8
 71
     3
 72
     8
 73
     4
 74
     0
 42
0.0000000001
 43
0.0000000001
 40
0.0
 40
0.0
 40
0.0
 40
0.0
 40
1.0
 40
1.0
 40
1.0
 40
1.0
 10
155.3466926117842
 20
171.4378829647838
 30
0.0
 10
155.0404234211015
 20
171.4718171776997
 30
0.0
 10
154.718306780732
 20
171.4556252182373
 30
0.0
 10
154.4106595509461
 20
171.4986889402118
 30
0.0
  0
SPLINE
  5
11B
330
B9
100
AcDbEntity
  8
Ebene 9
 62
   250
420
  2301728
370
     9
100
AcDbSpline
210
0.0
220
0.0
230
1.0
 70
     8
 71
     3
 72
     8
 73
     4
 74
     0
 42
0.0000000001
 43
0.0000000001
 40
0.0
 40
0.0
 40
0.0
 40
0.0
 40
1.0
 40
1.0
 40
1.0
 40
1.0
 10
154.4106595509461
 20
171.4986889402118
 30
0.0
 10
154.0875093812492
 20
171.4675108055023
 30
0.0
 10
153.7374874490403
 20
171.4316817888195
 30
0.0
 10
153.4219164944111
 20
171.5246994282844
 30
0.0
  0
SPLINE
  5
11C
330
B9
100
AcDbEntity
  8
Ebene 9
 62
   250
420
  2301728
370
     9
100
AcDbSpline
210
0.0
220
0.0
230
1.0
 70
     8
 71
     3
 72
     8
 73
     4
 74
     0
 42
0.0000000001
 43
0.0000000001
 40
0.0
 40
0.0
 40
0.0
 40
0.0
 40
1.0
 40
1.0
 40
1.0
 40
1.0
 10
153.4219164944111
 20
171.5246994282844
 30
0.0
 10
153.0715500524263
 20
171.4382274745596
 30
0.0
 10
152.6870771426378
 20
171.4614818844258
 30
0.0
 10
152.3299927600251
 20
171.4986889402118
 30
0.0
  0
SPLINE
  5
11D
330
B9
100
AcDbEntity
  8
Ebene 9
 62
   250
420
  2301728
370
     9
100
AcDbSpline
210
0.0
220
0.0
230
1.0
 70
     8
 71
     3
 72
     8
 73
     4
 74
     0
 42
0.0000000001
 43
0.0000000001
 40
0.0
 40
0.0
 40
0.0
 40
0.0
 40
1.0
 40
1.0
 40
1.0
 40
1.0
 10
149.5215490677347
 20
171.4986889402118
 30
0.0
 10
149.8867294300787
 20
171.456141982901
 30
0.0
 10
150.247775675113
 20
171.4070493398501
 30
0.0
 10
150.6136450570086
 20
171.4726784521392
 30
0.0
  0
SPLINE
  5
11E
330
B9
100
AcDbEntity
  8
Ebene 9
 62
   250
420
  2301728
370
     9
100
AcDbSpline
210
0.0
220
0.0
230
1.0
 70
     8
 71
     3
 72
     8
 73
     4
 74
     0
 42
0.0000000001
 43
0.0000000001
 40
0.0
 40
0.0
 40
0.0
 40
0.0
 40
1.0
 40
1.0
 40
1.0
 40
1.0
 10
150.6136450570086
 20
171.4726784521392
 30
0.0
 10
150.6570532887589
 20
171.816154698608
 30
0.0
 10
150.6809967181767
 20
172.1620425135073
 30
0.0
 10
150.6658382880417
 20
172.5125812103799
 30
0.0
  0
SPLINE
  5
11F
330
B9
100
AcDbEntity
  8
Ebene 9
 62
   250
420
  2301728
370
     9
100
AcDbSpline
210
0.0
220
0.0
230
1.0
 70
     8
 71
     3
 72
     8
 73
     4
 74
     0
 42
0.0000000001
 43
0.0000000001
 40
0.0
 40
0.0
 40
0.0
 40
0.0
 40
1.0
 40
1.0
 40
1.0
 40
1.0
 10
150.6136450570086
 20
171.4726784521392
 30
0.0
 10
150.8658262128914
 20
171.4339211023621
 30
0.0
 10
151.1531473659054
 20
171.3617463043329
 30
0.0
 10
151.393787444299
 20
171.4726784521392
 30
0.0
  0
SPLINE
  5
120
330
B9
100
AcDbEntity
  8
Ebene 9
 62
   250
420
  2301728
370
     9
100
AcDbSpline
210
0.0
220
0.0
230
1.0
 70
     8
 71
     3
 72
     8
 73
     4
 74
     0
 42
0.0000000001
 43
0.0000000001
 40
0.0
 40
0.0
 40
0.0
 40
0.0
 40
1.0
 40
1.0
 40
1.0
 40
1.0
 10
151.393787444299
 20
171.4726784521392
 30
0.0
 10
151.3388381350595
 20
171.8294183249762
 30
0.0
 10
151.5734492923767
 20
172.1232851637303
 30
0.0
 10
151.4978293965895
 20
172.4867429771952
 30
0.0
  0
SPLINE
  5
121
330
B9
100
AcDbEntity
  8
Ebene 9
 62
   250
420
  2301728
370
     9
100
AcDbSpline
210
0.0
220
0.0
230
1.0
 70
     8
 71
     3
 72
     8
 73
     4
 74
     0
 42
0.0000000001
 43
0.0000000001
 40
0.0
 40
0.0
 40
0.0
 40
0.0
 40
1.0
 40
1.0
 40
1.0
 40
1.0
 10
151.393787444299
 20
171.4726784521392
 30
0.0
 10
151.708152614713
 20
171.4371939452322
 30
0.0
 10
152.0199339618086
 20
171.4091163985048
 30
0.0
 10
152.3299927600251
 20
171.4986889402118
 30
0.0
  0
SPLINE
  5
122
330
B9
100
AcDbEntity
  8
Ebene 9
 62
   250
420
  2301728
370
     9
100
AcDbSpline
210
0.0
220
0.0
230
1.0
 70
     8
 71
     3
 72
     8
 73
     4
 74
     0
 42
0.0000000001
 43
0.0000000001
 40
0.0
 40
0.0
 40
0.0
 40
0.0
 40
1.0
 40
1.0
 40
1.0
 40
1.0
 10
152.3299927600251
 20
171.4986889402118
 30
0.0
 10
152.3503188367971
 20
171.8352749911647
 30
0.0
 10
152.2933024689028
 20
172.1613534939558
 30
0.0
 10
152.2257785528467
 20
172.4867429771952
 30
0.0
  0
SPLINE
  5
123
330
B9
100
AcDbEntity
  8
Ebene 9
 62
   250
420
  2301728
370
     9
100
AcDbSpline
210
0.0
220
0.0
230
1.0
 70
     8
 71
     3
 72
     8
 73
     4
 74
     0
 42
0.0000000001
 43
0.0000000001
 40
0.0
 40
0.0
 40
0.0
 40
0.0
 40
1.0
 40
1.0
 40
1.0
 40
1.0
 10
153.4219164944111
 20
171.5246994282844
 30
0.0
 10
153.3209751301028
 20
171.8530172446182
 30
0.0
 10
153.391599634141
 20
172.2078623136883
 30
0.0
 10
153.3702400280416
 20
172.5473766977354
 30
0.0
  0
SPLINE
  5
124
330
B9
100
AcDbEntity
  8
Ebene 9
 62
   250
420
  2301728
370
     9
100
AcDbSpline
210
0.0
220
0.0
230
1.0
 70
     8
 71
     3
 72
     8
 73
     4
 74
     0
 42
0.0000000001
 43
0.0000000001
 40
0.0
 40
0.0
 40
0.0
 40
0.0
 40
1.0
 40
1.0
 40
1.0
 40
1.0
 10
153.3702400280416
 20
172.5473766977354
 30
0.0
 10
152.9905902551143
 20
172.5706311076016
 30
0.0
 10
152.5945762678365
 20
172.6030150265265
 30
0.0
 10
152.2257785528467
 20
172.4867429771952
 30
0.0
  0
SPLINE
  5
125
330
B9
100
AcDbEntity
  8
Ebene 9
 62
   250
420
  2301728
370
     9
100
AcDbSpline
210
0.0
220
0.0
230
1.0
 70
     8
 71
     3
 72
     8
 73
     4
 74
     0
 42
0.0000000001
 43
0.0000000001
 40
0.0
 40
0.0
 40
0.0
 40
0.0
 40
1.0
 40
1.0
 40
1.0
 40
1.0
 10
154.4106595509461
 20
171.4986889402118
 30
0.0
 10
154.3844768079855
 20
171.8523282250666
 30
0.0
 10
154.4675036639524
 20
172.2228484889354
 30
0.0
 10
154.358294065025
 20
172.5646021865252
 30
0.0
  0
SPLINE
  5
126
330
B9
100
AcDbEntity
  8
Ebene 9
 62
   250
420
  2301728
370
     9
100
AcDbSpline
210
0.0
220
0.0
230
1.0
 70
     8
 71
     3
 72
     8
 73
     4
 74
     0
 42
0.0000000001
 43
0.0000000001
 40
0.0
 40
0.0
 40
0.0
 40
0.0
 40
1.0
 40
1.0
 40
1.0
 40
1.0
 10
154.358294065025
 20
172.5646021865252
 30
0.0
 10
154.0292872291397
 20
172.5542668932513
 30
0.0
 10
153.6968352954964
 20
172.586823067064
 30
0.0
 10
153.3702400280416
 20
172.5473766977354
 30
0.0
  0
SPLINE
  5
127
330
B9
100
AcDbEntity
  8
Ebene 9
 62
   250
420
  2301728
370
     9
100
AcDbSpline
210
0.0
220
0.0
230
1.0
 70
     8
 71
     3
 72
     8
 73
     4
 74
     0
 42
0.0000000001
 43
0.0000000001
 40
0.0
 40
0.0
 40
0.0
 40
0.0
 40
1.0
 40
1.0
 40
1.0
 40
1.0
 10
167.1172136116361
 20
169.0974558029125
 30
0.0
 10
167.1637224313686
 20
169.3287941173596
 30
0.0
 10
167.1099789063445
 20
169.5706399799686
 30
0.0
 10
167.0741498896616
 20
169.8083517252679
 30
0.0
  0
SPLINE
  5
128
330
B9
100
AcDbEntity
  8
Ebene 9
 62
   250
420
  2301728
370
     9
100
AcDbSpline
210
0.0
220
0.0
230
1.0
 70
     8
 71
     3
 72
     8
 73
     4
 74
     0
 42
0.0000000001
 43
0.0000000001
 40
0.0
 40
0.0
 40
0.0
 40
0.0
 40
1.0
 40
1.0
 40
1.0
 40
1.0
 10
167.0741498896616
 20
169.8083517252679
 30
0.0
 10
163.4392272452363
 20
168.5958495693533
 30
0.0
 10
159.4690965889612
 20
167.9550613863724
 30
0.0
 10
155.5547765163651
 20
167.8062331632285
 30
0.0
  0
SPLINE
  5
129
330
B9
100
AcDbEntity
  8
Ebene 9
 62
   250
420
  2301728
370
     9
100
AcDbSpline
210
0.0
220
0.0
230
1.0
 70
     8
 71
     3
 72
     8
 73
     4
 74
     0
 42
0.0000000001
 43
0.0000000001
 40
0.0
 40
0.0
 40
0.0
 40
0.0
 40
1.0
 40
1.0
 40
1.0
 40
1.0
 10
140.6629969477999
 20
169.201497755203
 30
0.0
 10
145.4029346980915
 20
167.6167527865406
 30
0.0
 10
150.5812611380838
 20
167.4329568211533
 30
0.0
 10
155.5547765163651
 20
167.4854945619623
 30
0.0
  0
SPLINE
  5
12A
330
B9
100
AcDbEntity
  8
Ebene 9
 62
   250
420
  2301728
370
     9
100
AcDbSpline
210
0.0
220
0.0
230
1.0
 70
    24
 71
     3
 72
     8
 73
     4
 74
     0
 42
0.0000000001
 43
0.0000000001
 40
0.0
 40
0.0
 40
0.0
 40
0.0
 40
1.0
 40
1.0
 40
1.0
 40
1.0
 10
155.5547765163651
 20
167.4854945619623
 30
0.0
 10
155.5547765163651
 20
167.561975732189
 30
0.0
 10
155.5547765163651
 20
167.671874350668
 30
0.0
 10
155.5547765163651
 20
167.8062331632285
 30
0.0
  0
SPLINE
  5
12B
330
B9
100
AcDbEntity
  8
Ebene 9
 62
   250
420
  2301728
370
     9
100
AcDbSpline
210
0.0
220
0.0
230
1.0
 70
     8
 71
     3
 72
     8
 73
     4
 74
     0
 42
0.0000000001
 43
0.0000000001
 40
0.0
 40
0.0
 40
0.0
 40
0.0
 40
1.0
 40
1.0
 40
1.0
 40
1.0
 10
166.2159760381534
 20
167.6761807228654
 30
0.0
 10
166.8316150075011
 20
167.8436124739024
 30
0.0
 10
168.2392819514043
 20
168.5502020240603
 30
0.0
 10
167.1172136116361
 20
169.0974558029125
 30
0.0
  0
SPLINE
  5
12C
330
B9
100
AcDbEntity
  8
Ebene 9
 62
   250
420
  2301728
370
     9
100
AcDbSpline
210
0.0
220
0.0
230
1.0
 70
     8
 71
     3
 72
     8
 73
     4
 74
     0
 42
0.0000000001
 43
0.0000000001
 40
0.0
 40
0.0
 40
0.0
 40
0.0
 40
1.0
 40
1.0
 40
1.0
 40
1.0
 10
167.1172136116361
 20
169.0974558029125
 30
0.0
 10
163.5742750773483
 20
167.6587829791877
 30
0.0
 10
159.3915818894071
 20
167.9652244247584
 30
0.0
 10
155.5547765163651
 20
167.4854945619623
 30
0.0
  0
SPLINE
  5
12D
330
B9
100
AcDbEntity
  8
Ebene 9
 62
   250
420
  2301728
370
     9
100
AcDbSpline
210
0.0
220
0.0
230
1.0
 70
     8
 71
     3
 72
     8
 73
     4
 74
     0
 42
0.0000000001
 43
0.0000000001
 40
0.0
 40
0.0
 40
0.0
 40
0.0
 40
1.0
 40
1.0
 40
1.0
 40
1.0
 10
166.2159760381534
 20
166.7399754071394
 30
0.0
 10
166.2910791692769
 20
167.0383208729788
 30
0.0
 10
166.3017589723266
 20
167.3788687863533
 30
0.0
 10
166.2159760381534
 20
167.6761807228654
 30
0.0
  0
SPLINE
  5
12E
330
B9
100
AcDbEntity
  8
Ebene 9
 62
   250
420
  2301728
370
     9
100
AcDbSpline
210
0.0
220
0.0
230
1.0
 70
     8
 71
     3
 72
     8
 73
     4
 74
     0
 42
0.0000000001
 43
0.0000000001
 40
0.0
 40
0.0
 40
0.0
 40
0.0
 40
1.0
 40
1.0
 40
1.0
 40
1.0
 10
166.2159760381534
 20
167.6761807228654
 30
0.0
 10
157.9384396550988
 20
165.8769784187699
 30
0.0
 10
148.9239968616163
 20
166.466779154933
 30
0.0
 10
140.6023632272598
 20
168.0401553009941
 30
0.0
  0
SPLINE
  5
12F
330
B9
100
AcDbEntity
  8
Ebene 9
 62
   250
420
  2301728
370
     9
100
AcDbSpline
210
0.0
220
0.0
230
1.0
 70
     8
 71
     3
 72
    20
 73
    16
 74
     0
 42
0.0000000001
 43
0.0000000001
 40
0.0
 40
0.0
 40
0.0
 40
0.0
 40
1.0
 40
1.0
 40
1.0
 40
2.0
 40
2.0
 40
2.0
 40
3.0
 40
3.0
 40
3.0
 40
4.0
 40
4.0
 40
4.0
 40
5.0
 40
5.0
 40
5.0
 40
5.0
 10
140.4897085305745
 20
165.6304816741878
 30
0.0
 10
140.5027999020547
 20
165.6344435366094
 30
0.0
 10
140.515891273535
 20
165.6382331441432
 30
0.0
 10
140.5289826450152
 20
165.642022751677
 30
0.0
 10
144.5015248697209
 20
163.9744231819356
 30
0.0
 10
149.0121913642201
 20
164.6279582266209
 30
0.0
 10
153.2121100409512
 20
163.9878590631916
 30
0.0
 10
157.7386239851371
 20
164.423319419798
 30
0.0
 10
162.9448557169688
 20
163.3851392104363
 30
0.0
 10
166.9167089221228
 20
165.9334780220005
 30
0.0
 10
166.9394465673253
 20
165.9839487041547
 30
0.0
 10
166.9614951929763
 20
166.0225337990438
 30
0.0
 10
166.9835438186273
 20
166.0609466390451
 30
0.0
 10
166.9656293102858
 20
166.4467975879368
 30
0.0
 10
166.5298244439037
 20
166.6190524758349
 30
0.0
 10
166.2159760381534
 20
166.7399754071394
 30
0.0
  0
SPLINE
  5
130
330
B9
100
AcDbEntity
  8
Ebene 9
 62
   250
420
  2301728
370
     9
100
AcDbSpline
210
0.0
220
0.0
230
1.0
 70
     8
 71
     3
 72
    14
 73
    10
 74
     0
 42
0.0000000001
 43
0.0000000001
 40
0.0
 40
0.0
 40
0.0
 40
0.0
 40
1.0
 40
1.0
 40
1.0
 40
2.0
 40
2.0
 40
2.0
 40
3.0
 40
3.0
 40
3.0
 40
3.0
 10
166.2159760381534
 20
166.7399754071394
 30
0.0
 10
164.2288436513611
 20
165.8480395976031
 30
0.0
 10
162.1407699002605
 20
165.5309183489827
 30
0.0
 10
159.8728620461943
 20
165.435661395975
 30
0.0
 10
153.5810800108289
 20
165.1710778881636
 30
0.0
 10
146.4345692217132
 20
165.3846739491572
 30
0.0
 10
140.6390535183821
 20
167.063297831724
 30
0.0
 10
140.5890996008917
 20
167.1368506688565
 30
0.0
 10
140.5281213705757
 20
167.1940392916387
 30
0.0
 10
140.4464725537121
 20
167.3122061447368
 30
0.0
  0
SPLINE
  5
131
330
B9
100
AcDbEntity
  8
Ebene 9
 62
   250
420
  2301728
370
     9
100
AcDbSpline
210
0.0
220
0.0
230
1.0
 70
     8
 71
     3
 72
     8
 73
     4
 74
     0
 42
0.0000000001
 43
0.0000000001
 40
0.0
 40
0.0
 40
0.0
 40
0.0
 40
1.0
 40
1.0
 40
1.0
 40
1.0
 10
141.9287258640751
 20
126.5384406499328
 30
0.0
 10
148.2995728929857
 20
127.9075224989468
 30
0.0
 10
155.3091410462225
 20
128.66613302525
 30
0.0
 10
161.6391636667013
 20
126.7985455306589
 30
0.0
  0
ENDBLK
  5
BC
330
B9
100
AcDbEntity
  8
0
100
AcDbBlockEnd
  0
BLOCK
  5
134
330
132
100
AcDbEntity
  8
0
100
AcDbBlockBegin
  2
block 5
 70
     0
 71
     0
 10
0.0
 20
0.0
 30
0.0
  3
block 5
  1

  0
SPLINE
  5
136
330
132
100
AcDbEntity
  8
Ebene 9
 62
   250
420
  2301728
370
     9
100
AcDbSpline
210
0.0
220
0.0
230
1.0
 70
     8
 71
     3
 72
     8
 73
     4
 74
     0
 42
0.0000000001
 43
0.0000000001
 40
0.0
 40
0.0
 40
0.0
 40
0.0
 40
1.0
 40
1.0
 40
1.0
 40
1.0
 10
197.70279150682
 20
164.0304060205025
 30
0.0
 10
197.8409399269143
 20
166.7528945237317
 30
0.0
 10
196.7254172728863
 20
169.2257856943966
 30
0.0
 10
195.9423465525016
 20
171.7605163698169
 30
0.0
  0
SPLINE
  5
137
330
132
100
AcDbEntity
  8
Ebene 9
 62
   250
420
  2301728
370
     9
100
AcDbSpline
210
0.0
220
0.0
230
1.0
 70
     8
 71
     3
 72
     8
 73
     4
 74
     0
 42
0.0000000001
 43
0.0000000001
 40
0.0
 40
0.0
 40
0.0
 40
0.0
 40
1.0
 40
1.0
 40
1.0
 40
1.0
 10
171.2354834715036
 20
165.6938714729343
 30
0.0
 10
170.7931329193813
 20
168.089247944045
 30
0.0
 10
172.7027506066194
 20
169.5554815498335
 30
0.0
 10
173.5340526956156
 20
171.5159144290016
 30
0.0
  0
SPLINE
  5
138
330
132
100
AcDbEntity
  8
Ebene 9
 62
   250
420
  2301728
370
     9
100
AcDbSpline
210
0.0
220
0.0
230
1.0
 70
     8
 71
     3
 72
     8
 73
     4
 74
     0
 42
0.0000000001
 43
0.0000000001
 40
0.0
 40
0.0
 40
0.0
 40
0.0
 40
1.0
 40
1.0
 40
1.0
 40
1.0
 10
170.9908815306883
 20
141.524960406842
 30
0.0
 10
170.9333483981303
 20
145.6394406591756
 30
0.0
 10
171.4969663913328
 20
149.7301497369793
 30
0.0
 10
171.5775816788692
 20
153.8542762630352
 30
0.0
  0
SPLINE
  5
139
330
132
100
AcDbEntity
  8
Ebene 9
 62
   250
420
  2301728
370
     9
100
AcDbSpline
210
0.0
220
0.0
230
1.0
 70
     8
 71
     3
 72
     8
 73
     4
 74
     0
 42
0.0000000001
 43
0.0000000001
 40
0.0
 40
0.0
 40
0.0
 40
0.0
 40
1.0
 40
1.0
 40
1.0
 40
1.0
 10
196.773304131722
 20
142.6012089464292
 30
0.0
 10
197.0092933281423
 20
146.183077085382
 30
0.0
 10
197.1343503767563
 20
149.8069754169819
 30
0.0
 10
197.018250582313
 20
153.3654168911805
 30
0.0
  0
SPLINE
  5
13A
330
132
100
AcDbEntity
  8
Ebene 9
 62
   250
420
  2301728
370
     9
100
AcDbSpline
210
0.0
220
0.0
230
1.0
 70
     8
 71
     3
 72
    38
 73
    34
 74
     0
 42
0.0000000001
 43
0.0000000001
 40
0.0
 40
0.0
 40
0.0
 40
0.0
 40
1.0
 40
1.0
 40
1.0
 40
2.0
 40
2.0
 40
2.0
 40
3.0
 40
3.0
 40
3.0
 40
4.0
 40
4.0
 40
4.0
 40
5.0
 40
5.0
 40
5.0
 40
6.0
 40
6.0
 40
6.0
 40
7.0
 40
7.0
 40
7.0
 40
8.0
 40
8.0
 40
8.0
 40
9.0
 40
9.0
 40
9.0
 40
10.0
 40
10.0
 40
10.0
 40
11.0
 40
11.0
 40
11.0
 40
11.0
 10
196.7247282533347
 20
172.5432425804258
 30
0.0
 10
196.6702957087589
 20
171.0094850585813
 30
0.0
 10
197.9859785425245
 20
169.2672991223801
 30
0.0
 10
198.3769971380531
 20
167.3123783996247
 30
0.0
 10
198.6402026067614
 20
165.9948007620922
 30
0.0
 10
198.4021463516862
 20
164.1399601292057
 30
0.0
 10
198.3976677246009
 20
162.5190416340847
 30
0.0
 10
198.3918110584124
 20
160.3748127895293
 30
0.0
 10
198.2343700908735
 20
158.2138752208479
 30
0.0
 10
198.1048344151742
 20
156.3543837059881
 30
0.0
 10
197.6766087638595
 20
150.2207316577131
 30
0.0
 10
197.8833146293372
 20
144.4095407595833
 30
0.0
 10
197.3513915355079
 20
139.2794456882025
 30
0.0
 10
197.1512313557704
 20
137.346745845986
 30
0.0
 10
196.1366500660506
 20
135.9731853698867
 30
0.0
 10
195.3525458163386
 20
134.885912517474
 30
0.0
 10
192.9854191468431
 20
131.6020453345849
 30
0.0
 10
188.9963404528993
 20
131.7670655171913
 30
0.0
 10
185.2821805600408
 20
131.9124486425773
 30
0.0
 10
183.030464665437
 20
132.0002986354053
 30
0.0
 10
180.760489752716
 20
131.5314208305467
 30
0.0
 10
178.693431097939
 20
131.794626299255
 30
0.0
 10
176.124421699827
 20
132.1215660764855
 30
0.0
 10
170.3986692260947
 20
134.7205478250918
 30
0.0
 10
170.0159188651851
 20
138.6858553445057
 30
0.0
 10
170.7914103705023
 20
147.2476122925921
 30
0.0
 10
169.934959067873
 20
155.7415008148467
 30
0.0
 10
170.5016776490577
 20
164.5049682366617
 30
0.0
 10
170.6560180286144
 20
166.8917319633776
 30
0.0
 10
170.8069133104131
 20
168.6533827019113
 30
0.0
 10
171.897286750808
 20
170.5108071581163
 30
0.0
 10
172.3995820039188
 20
171.3662249314182
 30
0.0
 10
172.6028427716386
 20
172.24214103638
 30
0.0
 10
172.6703666876946
 20
173.4565379960615
 30
0.0
  0
SPLINE
  5
13B
330
132
100
AcDbEntity
  8
Ebene 9
 62
   250
420
  2301728
370
     9
100
AcDbSpline
210
0.0
220
0.0
230
1.0
 70
     8
 71
     3
 72
    14
 73
    10
 74
     0
 42
0.0000000001
 43
0.0000000001
 40
0.0
 40
0.0
 40
0.0
 40
0.0
 40
1.0
 40
1.0
 40
1.0
 40
2.0
 40
2.0
 40
2.0
 40
3.0
 40
3.0
 40
3.0
 40
3.0
 10
172.6703666876946
 20
173.4565379960615
 30
0.0
 10
172.3582408308233
 20
173.9019891361659
 30
0.0
 10
171.6254685377048
 20
174.1825923485519
 30
0.0
 10
171.8514669506271
 20
174.8623101361977
 30
0.0
 10
171.9499967465048
 20
174.9510214034652
 30
0.0
 10
172.0151090941303
 20
175.093303940869
 30
0.0
 10
172.1615257488437
 20
175.1088068807799
 30
0.0
 10
172.3172441675035
 20
175.0834854122589
 30
0.0
 10
172.4774412132487
 20
175.0877917844563
 30
0.0
 10
172.629025514599
 20
175.0385268865175
 30
0.0
  0
SPLINE
  5
13C
330
132
100
AcDbEntity
  8
Ebene 9
 62
   250
420
  2301728
370
     9
100
AcDbSpline
210
0.0
220
0.0
230
1.0
 70
     8
 71
     3
 72
     8
 73
     4
 74
     0
 42
0.0000000001
 43
0.0000000001
 40
0.0
 40
0.0
 40
0.0
 40
0.0
 40
1.0
 40
1.0
 40
1.0
 40
1.0
 10
172.629025514599
 20
175.0385268865175
 30
0.0
 10
172.6717447267978
 20
175.2705542205162
 30
0.0
 10
172.7654513858143
 20
175.485528320613
 30
0.0
 10
172.7757866790882
 20
175.7234123208003
 30
0.0
  0
SPLINE
  5
13D
330
132
100
AcDbEntity
  8
Ebene 9
 62
   250
420
  2301728
370
     9
100
AcDbSpline
210
0.0
220
0.0
230
1.0
 70
     8
 71
     3
 72
    14
 73
    10
 74
     0
 42
0.0000000001
 43
0.0000000001
 40
0.0
 40
0.0
 40
0.0
 40
0.0
 40
1.0
 40
1.0
 40
1.0
 40
2.0
 40
2.0
 40
2.0
 40
3.0
 40
3.0
 40
3.0
 40
3.0
 10
172.7757866790882
 20
175.7234123208003
 30
0.0
 10
172.3231008336921
 20
175.9650859285213
 30
0.0
 10
171.6137552053277
 20
176.2425885529251
 30
0.0
 10
171.5445087403927
 20
176.8353176221824
 30
0.0
 10
171.6010083436233
 20
176.9062866359964
 30
0.0
 10
171.684379709366
 20
176.9536567301684
 30
0.0
 10
171.7457024494577
 20
177.0229031951034
 30
0.0
 10
172.147400848036
 20
177.1681140656015
 30
0.0
 10
172.4743406252666
 20
176.8823432065786
 30
0.0
 10
172.8333198116462
 20
176.8158528198499
 30
0.0
  0
SPLINE
  5
13E
330
132
100
AcDbEntity
  8
Ebene 9
 62
   250
420
  2301728
370
     9
100
AcDbSpline
210
0.0
220
0.0
230
1.0
 70
     8
 71
     3
 72
     8
 73
     4
 74
     0
 42
0.0000000001
 43
0.0000000001
 40
0.0
 40
0.0
 40
0.0
 40
0.0
 40
1.0
 40
1.0
 40
1.0
 40
1.0
 10
172.8333198116462
 20
176.8158528198499
 30
0.0
 10
172.8477892222296
 20
176.8876831081034
 30
0.0
 10
172.8467556929022
 20
177.0204916266728
 30
0.0
 10
172.8495117711086
 20
177.141931322641
 30
0.0
  0
SPLINE
  5
13F
330
132
100
AcDbEntity
  8
Ebene 9
 62
   250
420
  2301728
370
     9
100
AcDbSpline
210
0.0
220
0.0
230
1.0
 70
     8
 71
     3
 72
     8
 73
     4
 74
     0
 42
0.0000000001
 43
0.0000000001
 40
0.0
 40
0.0
 40
0.0
 40
0.0
 40
1.0
 40
1.0
 40
1.0
 40
1.0
 10
172.8495117711086
 20
177.141931322641
 30
0.0
 10
172.8030029513761
 20
177.3441585610333
 30
0.0
 10
172.7182535465303
 20
177.5506921716231
 30
0.0
 10
172.7675184444691
 20
177.7617044092983
 30
0.0
  0
SPLINE
  5
140
330
132
100
AcDbEntity
  8
Ebene 9
 62
   250
420
  2301728
370
     9
100
AcDbSpline
210
0.0
220
0.0
230
1.0
 70
     8
 71
     3
 72
     8
 73
     4
 74
     0
 42
0.0000000001
 43
0.0000000001
 40
0.0
 40
0.0
 40
0.0
 40
0.0
 40
1.0
 40
1.0
 40
1.0
 40
1.0
 10
172.7675184444691
 20
177.7617044092983
 30
0.0
 10
172.5976751250016
 20
177.8917568496613
 30
0.0
 10
172.6579643357659
 20
178.125506732539
 30
0.0
 10
172.727210800701
 20
178.2919049542486
 30
0.0
  0
SPLINE
  5
141
330
132
100
AcDbEntity
  8
Ebene 9
 62
   250
420
  2301728
370
     9
100
AcDbSpline
210
0.0
220
0.0
230
1.0
 70
     8
 71
     3
 72
     8
 73
     4
 74
     0
 42
0.0000000001
 43
0.0000000001
 40
0.0
 40
0.0
 40
0.0
 40
0.0
 40
1.0
 40
1.0
 40
1.0
 40
1.0
 10
172.727210800701
 20
178.2919049542486
 30
0.0
 10
172.438167098808
 20
178.828651184939
 30
0.0
 10
173.0524280290525
 20
179.3199221252244
 30
0.0
 10
172.8005913829456
 20
179.88164531466
 30
0.0
  0
SPLINE
  5
142
330
132
100
AcDbEntity
  8
Ebene 9
 62
   250
420
  2301728
370
     9
100
AcDbSpline
210
0.0
220
0.0
230
1.0
 70
     8
 71
     3
 72
     8
 73
     4
 74
     0
 42
0.0000000001
 43
0.0000000001
 40
0.0
 40
0.0
 40
0.0
 40
0.0
 40
1.0
 40
1.0
 40
1.0
 40
1.0
 10
172.8005913829456
 20
179.88164531466
 30
0.0
 10
172.5966415956742
 20
179.9471021720613
 30
0.0
 10
172.4367890597048
 20
180.1269362750269
 30
0.0
 10
172.3603078894781
 20
180.3221010630154
 30
0.0
  0
SPLINE
  5
143
330
132
100
AcDbEntity
  8
Ebene 9
 62
   250
420
  2301728
370
     9
100
AcDbSpline
210
0.0
220
0.0
230
1.0
 70
     8
 71
     3
 72
     8
 73
     4
 74
     0
 42
0.0000000001
 43
0.0000000001
 40
0.0
 40
0.0
 40
0.0
 40
0.0
 40
1.0
 40
1.0
 40
1.0
 40
1.0
 10
197.295580951829
 20
178.2836367196295
 30
0.0
 10
189.4948460984763
 20
176.4441267717658
 30
0.0
 10
180.6736732892154
 20
175.5449562569378
 30
0.0
 10
172.7675184444691
 20
177.7617044092983
 30
0.0
  0
SPLINE
  5
144
330
132
100
AcDbEntity
  8
Ebene 9
 62
   250
420
  2301728
370
     9
100
AcDbSpline
210
0.0
220
0.0
230
1.0
 70
     8
 71
     3
 72
     8
 73
     4
 74
     0
 42
0.0000000001
 43
0.0000000001
 40
0.0
 40
0.0
 40
0.0
 40
0.0
 40
1.0
 40
1.0
 40
1.0
 40
1.0
 10
172.8495117711086
 20
177.141931322641
 30
0.0
 10
177.3546661091951
 20
175.89962907112
 30
0.0
 10
182.1058004272001
 20
175.524457925278
 30
0.0
 10
186.8421208248458
 20
175.5032705740665
 30
0.0
  0
SPLINE
  5
145
330
132
100
AcDbEntity
  8
Ebene 9
 62
   250
420
  2301728
370
     9
100
AcDbSpline
210
0.0
220
0.0
230
1.0
 70
     8
 71
     3
 72
    11
 73
     7
 74
     0
 42
0.0000000001
 43
0.0000000001
 40
0.0
 40
0.0
 40
0.0
 40
0.0
 40
1.0
 40
1.0
 40
1.0
 40
2.0
 40
2.0
 40
2.0
 40
2.0
 10
197.6783313127385
 20
177.3867055183441
 30
0.0
 10
197.7448216994672
 20
177.5264042324295
 30
0.0
 10
197.755156992741
 20
177.6807446119862
 30
0.0
 10
197.7971871853882
 20
177.8259554824843
 30
0.0
 10
197.7148493489729
 20
178.0638394826715
 30
0.0
 10
197.5043538759614
 20
178.176321924469
 30
0.0
 10
197.295580951829
 20
178.2836367196295
 30
0.0
  0
SPLINE
  5
146
330
132
100
AcDbEntity
  8
Ebene 9
 62
   250
420
  2301728
370
     9
100
AcDbSpline
210
0.0
220
0.0
230
1.0
 70
     8
 71
     3
 72
     8
 73
     4
 74
     0
 42
0.0000000001
 43
0.0000000001
 40
0.0
 40
0.0
 40
0.0
 40
0.0
 40
1.0
 40
1.0
 40
1.0
 40
1.0
 10
172.3117320110908
 20
181.284489121702
 30
0.0
 10
172.4119843558475
 20
181.2622682411632
 30
0.0
 10
172.4846759185405
 20
181.2519329478893
 30
0.0
 10
172.5559894421303
 20
181.2353964786511
 30
0.0
  0
SPLINE
  5
147
330
132
100
AcDbEntity
  8
Ebene 9
 62
   250
420
  2301728
370
     9
100
AcDbSpline
210
0.0
220
0.0
230
1.0
 70
     8
 71
     3
 72
     8
 73
     4
 74
     0
 42
0.0000000001
 43
0.0000000001
 40
0.0
 40
0.0
 40
0.0
 40
0.0
 40
1.0
 40
1.0
 40
1.0
 40
1.0
 10
172.5559894421303
 20
181.2353964786511
 30
0.0
 10
172.7213541345124
 20
181.3148059819721
 30
0.0
 10
172.924959412008
 20
181.3256580399097
 30
0.0
 10
173.0937692021481
 20
181.2515884381135
 30
0.0
  0
SPLINE
  5
148
330
132
100
AcDbEntity
  8
Ebene 9
 62
   250
420
  2301728
370
     9
100
AcDbSpline
210
0.0
220
0.0
230
1.0
 70
     8
 71
     3
 72
     8
 73
     4
 74
     0
 42
0.0000000001
 43
0.0000000001
 40
0.0
 40
0.0
 40
0.0
 40
0.0
 40
1.0
 40
1.0
 40
1.0
 40
1.0
 10
173.0937692021481
 20
181.2515884381135
 30
0.0
 10
173.301853106729
 20
181.2131755981122
 30
0.0
 10
173.4965011300538
 20
181.1687338370345
 30
0.0
 10
173.6811583698806
 20
181.0560791403491
 30
0.0
  0
SPLINE
  5
149
330
132
100
AcDbEntity
  8
Ebene 9
 62
   250
420
  2301728
370
     9
100
AcDbSpline
210
0.0
220
0.0
230
1.0
 70
     8
 71
     3
 72
     8
 73
     4
 74
     0
 42
0.0000000001
 43
0.0000000001
 40
0.0
 40
0.0
 40
0.0
 40
0.0
 40
1.0
 40
1.0
 40
1.0
 40
1.0
 10
173.6811583698806
 20
181.0560791403491
 30
0.0
 10
173.9185256054041
 20
180.9918280671632
 30
0.0
 10
174.1813865643366
 20
181.0584907087797
 30
0.0
 10
174.3663883139392
 20
180.8603975876969
 30
0.0
  0
SPLINE
  5
14A
330
132
100
AcDbEntity
  8
Ebene 9
 62
   250
420
  2301728
370
     9
100
AcDbSpline
210
0.0
220
0.0
230
1.0
 70
     8
 71
     3
 72
     8
 73
     4
 74
     0
 42
0.0000000001
 43
0.0000000001
 40
0.0
 40
0.0
 40
0.0
 40
0.0
 40
1.0
 40
1.0
 40
1.0
 40
1.0
 10
174.3663883139392
 20
180.8603975876969
 30
0.0
 10
174.5730941794168
 20
180.965128559539
 30
0.0
 10
174.7808335742219
 20
180.7968355340625
 30
0.0
 10
174.9775486562015
 20
180.7380966172893
 30
0.0
  0
SPLINE
  5
14B
330
132
100
AcDbEntity
  8
Ebene 9
 62
   250
420
  2301728
370
     9
100
AcDbSpline
210
0.0
220
0.0
230
1.0
 70
     8
 71
     3
 72
     8
 73
     4
 74
     0
 42
0.0000000001
 43
0.0000000001
 40
0.0
 40
0.0
 40
0.0
 40
0.0
 40
1.0
 40
1.0
 40
1.0
 40
1.0
 10
174.9775486562015
 20
180.7380966172893
 30
0.0
 10
175.2159494210525
 20
180.6774628967491
 30
0.0
 10
175.5163619455467
 20
180.8038979844663
 30
0.0
 10
175.7034307538041
 20
180.5992591776434
 30
0.0
  0
SPLINE
  5
14C
330
132
100
AcDbEntity
  8
Ebene 9
 62
   250
420
  2301728
370
     9
100
AcDbSpline
210
0.0
220
0.0
230
1.0
 70
     8
 71
     3
 72
     8
 73
     4
 74
     0
 42
0.0000000001
 43
0.0000000001
 40
0.0
 40
0.0
 40
0.0
 40
0.0
 40
1.0
 40
1.0
 40
1.0
 40
1.0
 10
175.7034307538041
 20
180.5992591776434
 30
0.0
 10
176.0207242573123
 20
180.6392223116358
 30
0.0
 10
176.2928869801913
 20
180.4855709516307
 30
0.0
 10
176.6170706792155
 20
180.4688622275046
 30
0.0
  0
SPLINE
  5
14D
330
132
100
AcDbEntity
  8
Ebene 9
 62
   250
420
  2301728
370
     9
100
AcDbSpline
210
0.0
220
0.0
230
1.0
 70
     8
 71
     3
 72
     8
 73
     4
 74
     0
 42
0.0000000001
 43
0.0000000001
 40
0.0
 40
0.0
 40
0.0
 40
0.0
 40
1.0
 40
1.0
 40
1.0
 40
1.0
 10
176.6170706792155
 20
180.4688622275046
 30
0.0
 10
176.9274739872079
 20
180.4166689964715
 30
0.0
 10
177.2375327854244
 20
180.3736052744969
 30
0.0
 10
177.545869034762
 20
180.2976408689339
 30
0.0
  0
SPLINE
  5
14E
330
132
100
AcDbEntity
  8
Ebene 9
 62
   250
420
  2301728
370
     9
100
AcDbSpline
210
0.0
220
0.0
230
1.0
 70
     8
 71
     3
 72
     8
 73
     4
 74
     0
 42
0.0000000001
 43
0.0000000001
 40
0.0
 40
0.0
 40
0.0
 40
0.0
 40
1.0
 40
1.0
 40
1.0
 40
1.0
 10
177.545869034762
 20
180.2976408689339
 30
0.0
 10
177.8631625382702
 20
180.2879945952116
 30
0.0
 10
178.1911358448282
 20
180.2184036205008
 30
0.0
 10
178.5246213077989
 20
180.1589756841759
 30
0.0
  0
SPLINE
  5
14F
330
132
100
AcDbEntity
  8
Ebene 9
 62
   250
420
  2301728
370
     9
100
AcDbSpline
210
0.0
220
0.0
230
1.0
 70
     8
 71
     3
 72
     8
 73
     4
 74
     0
 42
0.0000000001
 43
0.0000000001
 40
0.0
 40
0.0
 40
0.0
 40
0.0
 40
1.0
 40
1.0
 40
1.0
 40
1.0
 10
178.5246213077989
 20
180.1589756841759
 30
0.0
 10
179.176778313381
 20
180.157080880409
 30
0.0
 10
179.825834730981
 20
180.0110087354715
 30
0.0
 10
180.4814368343211
 20
180.0041185399556
 30
0.0
  0
SPLINE
  5
150
330
132
100
AcDbEntity
  8
Ebene 9
 62
   250
420
  2301728
370
     9
100
AcDbSpline
210
0.0
220
0.0
230
1.0
 70
     8
 71
     3
 72
     8
 73
     4
 74
     0
 42
0.0000000001
 43
0.0000000001
 40
0.0
 40
0.0
 40
0.0
 40
0.0
 40
1.0
 40
1.0
 40
1.0
 40
1.0
 10
180.4814368343211
 20
180.0041185399556
 30
0.0
 10
180.7408526954956
 20
180.0601013785224
 30
0.0
 10
181.0095703206167
 20
180.0242723618396
 30
0.0
 10
181.2648520644816
 20
179.9632941315237
 30
0.0
  0
SPLINE
  5
151
330
132
100
AcDbEntity
  8
Ebene 9
 62
   250
420
  2301728
370
     9
100
AcDbSpline
210
0.0
220
0.0
230
1.0
 70
     8
 71
     3
 72
     8
 73
     4
 74
     0
 42
0.0000000001
 43
0.0000000001
 40
0.0
 40
0.0
 40
0.0
 40
0.0
 40
1.0
 40
1.0
 40
1.0
 40
1.0
 10
181.2648520644816
 20
179.9632941315237
 30
0.0
 10
181.5849016461963
 20
179.9393507021059
 30
0.0
 10
181.9159755407364
 20
179.9186801155581
 30
0.0
 10
182.2432598277427
 20
179.930737957711
 30
0.0
  0
SPLINE
  5
152
330
132
100
AcDbEntity
  8
Ebene 9
 62
   250
420
  2301728
370
     9
100
AcDbSpline
210
0.0
220
0.0
230
1.0
 70
     8
 71
     3
 72
     8
 73
     4
 74
     0
 42
0.0000000001
 43
0.0000000001
 40
0.0
 40
0.0
 40
0.0
 40
0.0
 40
1.0
 40
1.0
 40
1.0
 40
1.0
 10
182.2432598277427
 20
179.930737957711
 30
0.0
 10
182.5023311791415
 20
179.9157517824638
 30
0.0
 10
182.7700152749351
 20
179.9612270728689
 30
0.0
 10
183.0259860383516
 20
179.9061055087415
 30
0.0
  0
SPLINE
  5
153
330
132
100
AcDbEntity
  8
Ebene 9
 62
   250
420
  2301728
370
     9
100
AcDbSpline
210
0.0
220
0.0
230
1.0
 70
     8
 71
     3
 72
     8
 73
     4
 74
     0
 42
0.0000000001
 43
0.0000000001
 40
0.0
 40
0.0
 40
0.0
 40
0.0
 40
1.0
 40
1.0
 40
1.0
 40
1.0
 10
183.0259860383516
 20
179.9061055087415
 30
0.0
 10
183.2488838632918
 20
179.9415900156485
 30
0.0
 10
183.4883181574701
 20
179.9484802111645
 30
0.0
 10
183.7108714726344
 20
179.9061055087415
 30
0.0
  0
SPLINE
  5
154
330
132
100
AcDbEntity
  8
Ebene 9
 62
   250
420
  2301728
370
     9
100
AcDbSpline
210
0.0
220
0.0
230
1.0
 70
     8
 71
     3
 72
    20
 73
    16
 74
     0
 42
0.0000000001
 43
0.0000000001
 40
0.0
 40
0.0
 40
0.0
 40
0.0
 40
1.0
 40
1.0
 40
1.0
 40
2.0
 40
2.0
 40
2.0
 40
3.0
 40
3.0
 40
3.0
 40
4.0
 40
4.0
 40
4.0
 40
5.0
 40
5.0
 40
5.0
 40
5.0
 10
196.96933019415
 20
181.5451107670918
 30
0.0
 10
197.0375431297576
 20
181.5693987062855
 30
0.0
 10
197.0947317525398
 20
181.5833513522052
 30
0.0
 10
197.1498533166672
 20
181.5966149785733
 30
0.0
 10
195.9140967508863
 20
183.5313818794446
 30
0.0
 10
193.0873940404788
 20
183.5601484457236
 30
0.0
 10
190.5462899342062
 20
183.7212067659083
 30
0.0
 10
189.6760582405451
 20
183.7761560751478
 30
0.0
 10
188.3645095240891
 20
183.7236183343389
 30
0.0
 10
187.0419364948076
 20
183.6597117709287
 30
0.0
 10
182.4665021624587
 20
183.4390532595312
 30
0.0
 10
176.5678057812767
 20
184.4050586708637
 30
0.0
 10
173.587451710864
 20
182.6787201843491
 30
0.0
 10
172.8839627486882
 20
182.2713373744701
 30
0.0
 10
172.5205049352233
 20
181.9549051454013
 30
0.0
 10
172.3117320110908
 20
181.284489121702
 30
0.0
  0
SPLINE
  5
155
330
132
100
AcDbEntity
  8
Ebene 9
 62
   250
420
  2301728
370
     9
100
AcDbSpline
210
0.0
220
0.0
230
1.0
 70
     8
 71
     3
 72
     8
 73
     4
 74
     0
 42
0.0000000001
 43
0.0000000001
 40
0.0
 40
0.0
 40
0.0
 40
0.0
 40
1.0
 40
1.0
 40
1.0
 40
1.0
 10
197.2135876251895
 20
179.9958503053364
 30
0.0
 10
197.2201333109296
 20
180.5234670269683
 30
0.0
 10
197.1005884187283
 20
181.0385091417835
 30
0.0
 10
196.96933019415
 20
181.5451107670918
 30
0.0
  0
SPLINE
  5
156
330
132
100
AcDbEntity
  8
Ebene 9
 62
   250
420
  2301728
370
     9
100
AcDbSpline
210
0.0
220
0.0
230
1.0
 70
     8
 71
     3
 72
     8
 73
     4
 74
     0
 42
0.0000000001
 43
0.0000000001
 40
0.0
 40
0.0
 40
0.0
 40
0.0
 40
1.0
 40
1.0
 40
1.0
 40
1.0
 10
196.96933019415
 20
181.5451107670918
 30
0.0
 10
196.7674474655334
 20
181.4977406729198
 30
0.0
 10
196.5631531684863
 20
181.4607058720217
 30
0.0
 10
196.3822855361933
 20
181.3494292144396
 30
0.0
  0
SPLINE
  5
157
330
132
100
AcDbEntity
  8
Ebene 9
 62
   250
420
  2301728
370
     9
100
AcDbSpline
210
0.0
220
0.0
230
1.0
 70
     8
 71
     3
 72
     8
 73
     4
 74
     0
 42
0.0000000001
 43
0.0000000001
 40
0.0
 40
0.0
 40
0.0
 40
0.0
 40
1.0
 40
1.0
 40
1.0
 40
1.0
 10
172.8005913829456
 20
179.88164531466
 30
0.0
 10
172.8495117711086
 20
179.9061055087415
 30
0.0
 10
172.8984321592717
 20
179.930737957711
 30
0.0
 10
172.9473525474347
 20
179.9553704066804
 30
0.0
  0
SPLINE
  5
158
330
132
100
AcDbEntity
  8
Ebene 9
 62
   250
420
  2301728
370
     9
100
AcDbSpline
210
0.0
220
0.0
230
1.0
 70
     8
 71
     3
 72
     8
 73
     4
 74
     0
 42
0.0000000001
 43
0.0000000001
 40
0.0
 40
0.0
 40
0.0
 40
0.0
 40
1.0
 40
1.0
 40
1.0
 40
1.0
 10
172.9473525474347
 20
179.9553704066804
 30
0.0
 10
172.9263374511112
 20
180.3966874294753
 30
0.0
 10
173.0503609703978
 20
180.8183673950498
 30
0.0
 10
173.0937692021481
 20
181.2515884381135
 30
0.0
  0
SPLINE
  5
159
330
132
100
AcDbEntity
  8
Ebene 9
 62
   250
420
  2301728
370
     9
100
AcDbSpline
210
0.0
220
0.0
230
1.0
 70
     8
 71
     3
 72
     8
 73
     4
 74
     0
 42
0.0000000001
 43
0.0000000001
 40
0.0
 40
0.0
 40
0.0
 40
0.0
 40
1.0
 40
1.0
 40
1.0
 40
1.0
 10
196.7002680592532
 20
179.8573573754664
 30
0.0
 10
196.5190559171844
 20
180.3324363562893
 30
0.0
 10
196.5469612090239
 20
180.8638426854549
 30
0.0
 10
196.3822855361933
 20
181.3494292144396
 30
0.0
  0
SPLINE
  5
15A
330
132
100
AcDbEntity
  8
Ebene 9
 62
   250
420
  2301728
370
     9
100
AcDbSpline
210
0.0
220
0.0
230
1.0
 70
     8
 71
     3
 72
     8
 73
     4
 74
     0
 42
0.0000000001
 43
0.0000000001
 40
0.0
 40
0.0
 40
0.0
 40
0.0
 40
1.0
 40
1.0
 40
1.0
 40
1.0
 10
196.3822855361933
 20
181.3494292144396
 30
0.0
 10
196.1979728061424
 20
181.2426311839428
 30
0.0
 10
195.9643951781526
 20
181.2527942223288
 30
0.0
 10
195.8190120527666
 20
181.1048272736243
 30
0.0
  0
SPLINE
  5
15B
330
132
100
AcDbEntity
  8
Ebene 9
 62
   250
420
  2301728
370
     9
100
AcDbSpline
210
0.0
220
0.0
230
1.0
 70
     8
 71
     3
 72
     8
 73
     4
 74
     0
 42
0.0000000001
 43
0.0000000001
 40
0.0
 40
0.0
 40
0.0
 40
0.0
 40
1.0
 40
1.0
 40
1.0
 40
1.0
 10
172.3603078894781
 20
180.3221010630154
 30
0.0
 10
172.4798527816793
 20
180.6140730980027
 30
0.0
 10
172.5115476810526
 20
180.9246486608829
 30
0.0
 10
172.5559894421303
 20
181.2353964786511
 30
0.0
  0
SPLINE
  5
15C
330
132
100
AcDbEntity
  8
Ebene 9
 62
   250
420
  2301728
370
     9
100
AcDbSpline
210
0.0
220
0.0
230
1.0
 70
     8
 71
     3
 72
     8
 73
     4
 74
     0
 42
0.0000000001
 43
0.0000000001
 40
0.0
 40
0.0
 40
0.0
 40
0.0
 40
1.0
 40
1.0
 40
1.0
 40
1.0
 10
172.3117320110908
 20
181.284489121702
 30
0.0
 10
171.89384165305
 20
181.1037937442969
 30
0.0
 10
172.0774653635494
 20
180.5389699668791
 30
0.0
 10
172.3603078894781
 20
180.3221010630154
 30
0.0
  0
SPLINE
  5
15D
330
132
100
AcDbEntity
  8
Ebene 9
 62
   250
420
  2301728
370
     9
100
AcDbSpline
210
0.0
220
0.0
230
1.0
 70
     8
 71
     3
 72
     8
 73
     4
 74
     0
 42
0.0000000001
 43
0.0000000001
 40
0.0
 40
0.0
 40
0.0
 40
0.0
 40
1.0
 40
1.0
 40
1.0
 40
1.0
 10
172.9473525474347
 20
179.9553704066804
 30
0.0
 10
173.175073509236
 20
179.9565761908957
 30
0.0
 10
173.3294138887927
 20
179.7832877736702
 30
0.0
 10
173.5674701438678
 20
179.832724926497
 30
0.0
  0
SPLINE
  5
15E
330
132
100
AcDbEntity
  8
Ebene 9
 62
   250
420
  2301728
370
     9
100
AcDbSpline
210
0.0
220
0.0
230
1.0
 70
     8
 71
     3
 72
     8
 73
     4
 74
     0
 42
0.0000000001
 43
0.0000000001
 40
0.0
 40
0.0
 40
0.0
 40
0.0
 40
1.0
 40
1.0
 40
1.0
 40
1.0
 10
173.5674701438678
 20
179.832724926497
 30
0.0
 10
173.644984843422
 20
180.2364903837301
 30
0.0
 10
173.5915858281735
 20
180.6578258395288
 30
0.0
 10
173.6811583698806
 20
181.0560791403491
 30
0.0
  0
SPLINE
  5
15F
330
132
100
AcDbEntity
  8
Ebene 9
 62
   250
420
  2301728
370
     9
100
AcDbSpline
210
0.0
220
0.0
230
1.0
 70
     8
 71
     3
 72
     8
 73
     4
 74
     0
 42
0.0000000001
 43
0.0000000001
 40
0.0
 40
0.0
 40
0.0
 40
0.0
 40
1.0
 40
1.0
 40
1.0
 40
1.0
 10
196.0884186974392
 20
179.5879507307938
 30
0.0
 10
195.8982493011997
 20
180.0721592206753
 30
0.0
 10
195.9075510651462
 20
180.5978811385402
 30
0.0
 10
195.8190120527666
 20
181.1048272736243
 30
0.0
  0
SPLINE
  5
160
330
132
100
AcDbEntity
  8
Ebene 9
 62
   250
420
  2301728
370
     9
100
AcDbSpline
210
0.0
220
0.0
230
1.0
 70
     8
 71
     3
 72
     8
 73
     4
 74
     0
 42
0.0000000001
 43
0.0000000001
 40
0.0
 40
0.0
 40
0.0
 40
0.0
 40
1.0
 40
1.0
 40
1.0
 40
1.0
 10
195.8190120527666
 20
181.1048272736243
 30
0.0
 10
195.5961142278265
 20
181.1230862917415
 30
0.0
 10
195.4314385549959
 20
180.9778754212434
 30
0.0
 10
195.2078517105042
 20
180.9580661091351
 30
0.0
  0
SPLINE
  5
161
330
132
100
AcDbEntity
  8
Ebene 9
 62
   250
420
  2301728
370
     9
100
AcDbSpline
210
0.0
220
0.0
230
1.0
 70
     8
 71
     3
 72
     8
 73
     4
 74
     0
 42
0.0000000001
 43
0.0000000001
 40
0.0
 40
0.0
 40
0.0
 40
0.0
 40
1.0
 40
1.0
 40
1.0
 40
1.0
 10
173.5674701438678
 20
179.832724926497
 30
0.0
 10
173.7411030708691
 20
179.69233719286
 30
0.0
 10
174.0253236359009
 20
179.7085291523224
 30
0.0
 10
174.2440873435315
 20
179.7105962109772
 30
0.0
  0
SPLINE
  5
162
330
132
100
AcDbEntity
  8
Ebene 9
 62
   250
420
  2301728
370
     9
100
AcDbSpline
210
0.0
220
0.0
230
1.0
 70
     8
 71
     3
 72
     8
 73
     4
 74
     0
 42
0.0000000001
 43
0.0000000001
 40
0.0
 40
0.0
 40
0.0
 40
0.0
 40
1.0
 40
1.0
 40
1.0
 40
1.0
 10
174.2440873435315
 20
179.7105962109772
 30
0.0
 10
174.4111745847926
 20
180.0728482402269
 30
0.0
 10
174.2323740111544
 20
180.491772127595
 30
0.0
 10
174.3663883139392
 20
180.8603975876969
 30
0.0
  0
SPLINE
  5
163
330
132
100
AcDbEntity
  8
Ebene 9
 62
   250
420
  2301728
370
     9
100
AcDbSpline
210
0.0
220
0.0
230
1.0
 70
     8
 71
     3
 72
     8
 73
     4
 74
     0
 42
0.0000000001
 43
0.0000000001
 40
0.0
 40
0.0
 40
0.0
 40
0.0
 40
1.0
 40
1.0
 40
1.0
 40
1.0
 10
174.2440873435315
 20
179.7105962109772
 30
0.0
 10
174.3760345876614
 20
179.4746070145568
 30
0.0
 10
174.6540539767289
 20
179.5879507307938
 30
0.0
 10
174.8559367053455
 20
179.4904544642435
 30
0.0
  0
SPLINE
  5
164
330
132
100
AcDbEntity
  8
Ebene 9
 62
   250
420
  2301728
370
     9
100
AcDbSpline
210
0.0
220
0.0
230
1.0
 70
     8
 71
     3
 72
     8
 73
     4
 74
     0
 42
0.0000000001
 43
0.0000000001
 40
0.0
 40
0.0
 40
0.0
 40
0.0
 40
1.0
 40
1.0
 40
1.0
 40
1.0
 10
174.8559367053455
 20
179.4904544642435
 30
0.0
 10
174.9537774816716
 20
179.8962869801314
 30
0.0
 10
174.9320733657964
 20
180.3233068472307
 30
0.0
 10
174.9775486562015
 20
180.7380966172893
 30
0.0
  0
SPLINE
  5
165
330
132
100
AcDbEntity
  8
Ebene 9
 62
   250
420
  2301728
370
     9
100
AcDbSpline
210
0.0
220
0.0
230
1.0
 70
     8
 71
     3
 72
     8
 73
     4
 74
     0
 42
0.0000000001
 43
0.0000000001
 40
0.0
 40
0.0
 40
0.0
 40
0.0
 40
1.0
 40
1.0
 40
1.0
 40
1.0
 10
195.5013740394825
 20
179.4904544642435
 30
0.0
 10
195.3012138597449
 20
179.944173838967
 30
0.0
 10
195.3697713051284
 20
180.4828148734243
 30
0.0
 10
195.2078517105042
 20
180.9580661091351
 30
0.0
  0
SPLINE
  5
166
330
132
100
AcDbEntity
  8
Ebene 9
 62
   250
420
  2301728
370
     9
100
AcDbSpline
210
0.0
220
0.0
230
1.0
 70
     8
 71
     3
 72
     8
 73
     4
 74
     0
 42
0.0000000001
 43
0.0000000001
 40
0.0
 40
0.0
 40
0.0
 40
0.0
 40
1.0
 40
1.0
 40
1.0
 40
1.0
 10
195.2078517105042
 20
180.9580661091351
 30
0.0
 10
194.984953885564
 20
180.8674600381007
 30
0.0
 10
194.7524097869016
 20
180.8254298454536
 30
0.0
 10
194.5229662762214
 20
180.7623845564829
 30
0.0
  0
SPLINE
  5
167
330
132
100
AcDbEntity
  8
Ebene 9
 62
   250
420
  2301728
370
     9
100
AcDbSpline
210
0.0
220
0.0
230
1.0
 70
     8
 71
     3
 72
     8
 73
     4
 74
     0
 42
0.0000000001
 43
0.0000000001
 40
0.0
 40
0.0
 40
0.0
 40
0.0
 40
1.0
 40
1.0
 40
1.0
 40
1.0
 10
174.8559367053455
 20
179.4904544642435
 30
0.0
 10
175.078145510734
 20
179.379694571325
 30
0.0
 10
175.3134456876028
 20
179.3132041845963
 30
0.0
 10
175.5645933141582
 20
179.3436932997543
 30
0.0
  0
SPLINE
  5
168
330
132
100
AcDbEntity
  8
Ebene 9
 62
   250
420
  2301728
370
     9
100
AcDbSpline
210
0.0
220
0.0
230
1.0
 70
     8
 71
     3
 72
     8
 73
     4
 74
     0
 42
0.0000000001
 43
0.0000000001
 40
0.0
 40
0.0
 40
0.0
 40
0.0
 40
1.0
 40
1.0
 40
1.0
 40
1.0
 10
175.5645933141582
 20
179.3436932997543
 30
0.0
 10
175.6565774242958
 20
179.7560715013823
 30
0.0
 10
175.708598400441
 20
180.1593201939517
 30
0.0
 10
175.7034307538041
 20
180.5992591776434
 30
0.0
  0
SPLINE
  5
169
330
132
100
AcDbEntity
  8
Ebene 9
 62
   250
420
  2301728
370
     9
100
AcDbSpline
210
0.0
220
0.0
230
1.0
 70
     8
 71
     3
 72
     8
 73
     4
 74
     0
 42
0.0000000001
 43
0.0000000001
 40
0.0
 40
0.0
 40
0.0
 40
0.0
 40
1.0
 40
1.0
 40
1.0
 40
1.0
 10
194.7186478288736
 20
179.2946006567033
 30
0.0
 10
194.5846335260889
 20
179.7695073826384
 30
0.0
 10
194.499884121243
 20
180.2559551860626
 30
0.0
 10
194.5229662762214
 20
180.7623845564829
 30
0.0
  0
SPLINE
  5
16A
330
132
100
AcDbEntity
  8
Ebene 9
 62
   250
420
  2301728
370
     9
100
AcDbSpline
210
0.0
220
0.0
230
1.0
 70
     8
 71
     3
 72
     8
 73
     4
 74
     0
 42
0.0000000001
 43
0.0000000001
 40
0.0
 40
0.0
 40
0.0
 40
0.0
 40
1.0
 40
1.0
 40
1.0
 40
1.0
 10
194.5229662762214
 20
180.7623845564829
 30
0.0
 10
194.0361739630214
 20
180.5713538858039
 30
0.0
 10
193.4973606736762
 20
180.6576535846409
 30
0.0
 10
193.0064342431667
 20
180.493494676474
 30
0.0
  0
SPLINE
  5
16B
330
132
100
AcDbEntity
  8
Ebene 9
 62
   250
420
  2301728
370
     9
100
AcDbSpline
210
0.0
220
0.0
230
1.0
 70
     8
 71
     3
 72
    11
 73
     7
 74
     0
 42
0.0000000001
 43
0.0000000001
 40
0.0
 40
0.0
 40
0.0
 40
0.0
 40
1.0
 40
1.0
 40
1.0
 40
2.0
 40
2.0
 40
2.0
 40
2.0
 10
175.5645933141582
 20
179.3436932997543
 30
0.0
 10
175.5773401758627
 20
179.3231949680944
 30
0.0
 10
175.5897425277913
 20
179.3023521266587
 30
0.0
 10
175.6028338992716
 20
179.2815092852231
 30
0.0
 10
175.8749966221506
 20
179.2486086016345
 30
0.0
 10
176.1392356201862
 20
179.0508599903276
 30
0.0
 10
176.4207001070117
 20
179.1969321352651
 30
0.0
  0
SPLINE
  5
16C
330
132
100
AcDbEntity
  8
Ebene 9
 62
   250
420
  2301728
370
     9
100
AcDbSpline
210
0.0
220
0.0
230
1.0
 70
     8
 71
     3
 72
     8
 73
     4
 74
     0
 42
0.0000000001
 43
0.0000000001
 40
0.0
 40
0.0
 40
0.0
 40
0.0
 40
1.0
 40
1.0
 40
1.0
 40
1.0
 10
176.4207001070117
 20
179.1969321352651
 30
0.0
 10
176.4858124546372
 20
179.6301531783288
 30
0.0
 10
176.5660832323977
 20
180.0349521648893
 30
0.0
 10
176.6170706792155
 20
180.4688622275046
 30
0.0
  0
SPLINE
  5
16D
330
132
100
AcDbEntity
  8
Ebene 9
 62
   250
420
  2301728
370
     9
100
AcDbSpline
210
0.0
220
0.0
230
1.0
 70
     8
 71
     3
 72
     8
 73
     4
 74
     0
 42
0.0000000001
 43
0.0000000001
 40
0.0
 40
0.0
 40
0.0
 40
0.0
 40
1.0
 40
1.0
 40
1.0
 40
1.0
 10
193.103930509717
 20
179.0744589099696
 30
0.0
 10
193.1590520738444
 20
179.5615957329454
 30
0.0
 10
192.9330536609221
 20
180.0030850106282
 30
0.0
 10
193.0064342431667
 20
180.493494676474
 30
0.0
  0
SPLINE
  5
16E
330
132
100
AcDbEntity
  8
Ebene 9
 62
   250
420
  2301728
370
     9
100
AcDbSpline
210
0.0
220
0.0
230
1.0
 70
     8
 71
     3
 72
     8
 73
     4
 74
     0
 42
0.0000000001
 43
0.0000000001
 40
0.0
 40
0.0
 40
0.0
 40
0.0
 40
1.0
 40
1.0
 40
1.0
 40
1.0
 10
193.0064342431667
 20
180.493494676474
 30
0.0
 10
192.7580426948176
 20
180.5546451616778
 30
0.0
 10
192.5158523224329
 20
180.4066782129734
 30
0.0
 10
192.272283910945
 20
180.3708491962906
 30
0.0
  0
SPLINE
  5
16F
330
132
100
AcDbEntity
  8
Ebene 9
 62
   250
420
  2301728
370
     9
100
AcDbSpline
210
0.0
220
0.0
230
1.0
 70
     8
 71
     3
 72
     8
 73
     4
 74
     0
 42
0.0000000001
 43
0.0000000001
 40
0.0
 40
0.0
 40
0.0
 40
0.0
 40
1.0
 40
1.0
 40
1.0
 40
1.0
 10
176.4207001070117
 20
179.1969321352651
 30
0.0
 10
176.7087102795773
 20
178.969038918576
 30
0.0
 10
177.0821588765403
 20
179.1156278281772
 30
0.0
 10
177.3994523800486
 20
179.001078327725
 30
0.0
  0
SPLINE
  5
170
330
132
100
AcDbEntity
  8
Ebene 9
 62
   250
420
  2301728
370
     9
100
AcDbSpline
210
0.0
220
0.0
230
1.0
 70
     8
 71
     3
 72
     8
 73
     4
 74
     0
 42
0.0000000001
 43
0.0000000001
 40
0.0
 40
0.0
 40
0.0
 40
0.0
 40
1.0
 40
1.0
 40
1.0
 40
1.0
 10
177.3994523800486
 20
179.001078327725
 30
0.0
 10
177.4669762961047
 20
179.432060057246
 30
0.0
 10
177.5954784424766
 20
179.849605905511
 30
0.0
 10
177.545869034762
 20
180.2976408689339
 30
0.0
  0
SPLINE
  5
171
330
132
100
AcDbEntity
  8
Ebene 9
 62
   250
420
  2301728
370
     9
100
AcDbSpline
210
0.0
220
0.0
230
1.0
 70
     8
 71
     3
 72
     8
 73
     4
 74
     0
 42
0.0000000001
 43
0.0000000001
 40
0.0
 40
0.0
 40
0.0
 40
0.0
 40
1.0
 40
1.0
 40
1.0
 40
1.0
 10
177.3994523800486
 20
179.001078327725
 30
0.0
 10
177.7263921572792
 20
178.9185682364218
 30
0.0
 10
178.0915725196231
 20
178.9425116658396
 30
0.0
 10
178.4267805314728
 20
178.9767903885314
 30
0.0
  0
SPLINE
  5
172
330
132
100
AcDbEntity
  8
Ebene 9
 62
   250
420
  2301728
370
     9
100
AcDbSpline
210
0.0
220
0.0
230
1.0
 70
     8
 71
     3
 72
     8
 73
     4
 74
     0
 42
0.0000000001
 43
0.0000000001
 40
0.0
 40
0.0
 40
0.0
 40
0.0
 40
1.0
 40
1.0
 40
1.0
 40
1.0
 10
178.4267805314728
 20
178.9767903885314
 30
0.0
 10
178.4088660231314
 20
179.3776275126702
 30
0.0
 10
178.4302256292308
 20
179.7715744412931
 30
0.0
 10
178.5246213077989
 20
180.1589756841759
 30
0.0
  0
SPLINE
  5
173
330
132
100
AcDbEntity
  8
Ebene 9
 62
   250
420
  2301728
370
     9
100
AcDbSpline
210
0.0
220
0.0
230
1.0
 70
     8
 71
     3
 72
     8
 73
     4
 74
     0
 42
0.0000000001
 43
0.0000000001
 40
0.0
 40
0.0
 40
0.0
 40
0.0
 40
1.0
 40
1.0
 40
1.0
 40
1.0
 10
192.3212042991081
 20
178.9767903885314
 30
0.0
 10
192.2929544974928
 20
179.4398115272014
 30
0.0
 10
192.3801154707692
 20
179.9195413899976
 30
0.0
 10
192.272283910945
 20
180.3708491962906
 30
0.0
  0
SPLINE
  5
174
330
132
100
AcDbEntity
  8
Ebene 9
 62
   250
420
  2301728
370
     9
100
AcDbSpline
210
0.0
220
0.0
230
1.0
 70
     8
 71
     3
 72
     8
 73
     4
 74
     0
 42
0.0000000001
 43
0.0000000001
 40
0.0
 40
0.0
 40
0.0
 40
0.0
 40
1.0
 40
1.0
 40
1.0
 40
1.0
 10
192.272283910945
 20
180.3708491962906
 30
0.0
 10
192.0338831460941
 20
180.2954015553912
 30
0.0
 10
191.7648210111973
 20
180.3315750818498
 30
0.0
 10
191.5384780884992
 20
180.1998000926078
 30
0.0
  0
SPLINE
  5
175
330
132
100
AcDbEntity
  8
Ebene 9
 62
   250
420
  2301728
370
     9
100
AcDbSpline
210
0.0
220
0.0
230
1.0
 70
    24
 71
     3
 72
     8
 73
     4
 74
     0
 42
0.0000000001
 43
0.0000000001
 40
0.0
 40
0.0
 40
0.0
 40
0.0
 40
1.0
 40
1.0
 40
1.0
 40
1.0
 10
191.5384780884992
 20
178.8789496122052
 30
0.0
 10
191.5384780884992
 20
179.3190608507849
 30
0.0
 10
191.5384780884992
 20
179.7593443442524
 30
0.0
 10
191.5384780884992
 20
180.1998000926078
 30
0.0
  0
SPLINE
  5
176
330
132
100
AcDbEntity
  8
Ebene 9
 62
   250
420
  2301728
370
     9
100
AcDbSpline
210
0.0
220
0.0
230
1.0
 70
     8
 71
     3
 72
     8
 73
     4
 74
     0
 42
0.0000000001
 43
0.0000000001
 40
0.0
 40
0.0
 40
0.0
 40
0.0
 40
1.0
 40
1.0
 40
1.0
 40
1.0
 10
191.5384780884992
 20
180.1998000926078
 30
0.0
 10
191.1829439998775
 20
180.236662638618
 30
0.0
 10
190.8122514811209
 20
180.1777514669568
 30
0.0
 10
190.4622295489119
 20
180.1019593162817
 30
0.0
  0
SPLINE
  5
177
330
132
100
AcDbEntity
  8
Ebene 9
 62
   250
420
  2301728
370
     9
100
AcDbSpline
210
0.0
220
0.0
230
1.0
 70
     8
 71
     3
 72
     8
 73
     4
 74
     0
 42
0.0000000001
 43
0.0000000001
 40
0.0
 40
0.0
 40
0.0
 40
0.0
 40
1.0
 40
1.0
 40
1.0
 40
1.0
 10
178.4267805314728
 20
178.9767903885314
 30
0.0
 10
179.1061538093428
 20
178.9369995094269
 30
0.0
 10
179.8030970857785
 20
178.93510470566
 30
0.0
 10
180.4814368343211
 20
178.9767903885314
 30
0.0
  0
SPLINE
  5
178
330
132
100
AcDbEntity
  8
Ebene 9
 62
   250
420
  2301728
370
     9
100
AcDbSpline
210
0.0
220
0.0
230
1.0
 70
    24
 71
     3
 72
     8
 73
     4
 74
     0
 42
0.0000000001
 43
0.0000000001
 40
0.0
 40
0.0
 40
0.0
 40
0.0
 40
1.0
 40
1.0
 40
1.0
 40
1.0
 10
180.4814368343211
 20
178.9767903885314
 30
0.0
 10
180.4814368343211
 20
179.3190608507849
 30
0.0
 10
180.4814368343211
 20
179.6616758228141
 30
0.0
 10
180.4814368343211
 20
180.0041185399556
 30
0.0
  0
SPLINE
  5
179
330
132
100
AcDbEntity
  8
Ebene 9
 62
   250
420
  2301728
370
     9
100
AcDbSpline
210
0.0
220
0.0
230
1.0
 70
     8
 71
     3
 72
     8
 73
     4
 74
     0
 42
0.0000000001
 43
0.0000000001
 40
0.0
 40
0.0
 40
0.0
 40
0.0
 40
1.0
 40
1.0
 40
1.0
 40
1.0
 10
190.6089907134011
 20
178.9032375513989
 30
0.0
 10
190.5221742499005
 20
179.3004573228919
 30
0.0
 10
190.6031340472126
 20
179.7149025831747
 30
0.0
 10
190.4622295489119
 20
180.1019593162817
 30
0.0
  0
SPLINE
  5
17A
330
132
100
AcDbEntity
  8
Ebene 9
 62
   250
420
  2301728
370
     9
100
AcDbSpline
210
0.0
220
0.0
230
1.0
 70
     8
 71
     3
 72
     8
 73
     4
 74
     0
 42
0.0000000001
 43
0.0000000001
 40
0.0
 40
0.0
 40
0.0
 40
0.0
 40
1.0
 40
1.0
 40
1.0
 40
1.0
 10
190.4622295489119
 20
180.1019593162817
 30
0.0
 10
190.1907558455846
 20
180.1322761765517
 30
0.0
 10
189.8951664579515
 20
180.1629375465976
 30
0.0
 10
189.6309274599158
 20
180.0774991222001
 30
0.0
  0
SPLINE
  5
17B
330
132
100
AcDbEntity
  8
Ebene 9
 62
   250
420
  2301728
370
     9
100
AcDbSpline
210
0.0
220
0.0
230
1.0
 70
     8
 71
     3
 72
     8
 73
     4
 74
     0
 42
0.0000000001
 43
0.0000000001
 40
0.0
 40
0.0
 40
0.0
 40
0.0
 40
1.0
 40
1.0
 40
1.0
 40
1.0
 10
180.4814368343211
 20
178.9767903885314
 30
0.0
 10
180.7050236788129
 20
178.950435390683
 30
0.0
 10
180.9482475805249
 20
178.9196017657492
 30
0.0
 10
181.1666667783797
 20
178.9767903885314
 30
0.0
  0
SPLINE
  5
17C
330
132
100
AcDbEntity
  8
Ebene 9
 62
   250
420
  2301728
370
     9
100
AcDbSpline
210
0.0
220
0.0
230
1.0
 70
     8
 71
     3
 72
     8
 73
     4
 74
     0
 42
0.0000000001
 43
0.0000000001
 40
0.0
 40
0.0
 40
0.0
 40
0.0
 40
1.0
 40
1.0
 40
1.0
 40
1.0
 10
181.1666667783797
 20
178.9767903885314
 30
0.0
 10
181.0963867841173
 20
179.3288793793951
 30
0.0
 10
181.2765653968587
 20
179.6218849437097
 30
0.0
 10
181.2648520644816
 20
179.9632941315237
 30
0.0
  0
SPLINE
  5
17D
330
132
100
AcDbEntity
  8
Ebene 9
 62
   250
420
  2301728
370
     9
100
AcDbSpline
210
0.0
220
0.0
230
1.0
 70
    24
 71
     3
 72
     8
 73
     4
 74
     0
 42
0.0000000001
 43
0.0000000001
 40
0.0
 40
0.0
 40
0.0
 40
0.0
 40
1.0
 40
1.0
 40
1.0
 40
1.0
 10
186.6460947624178
 20
178.9196017657492
 30
0.0
 10
186.6460947624178
 20
179.2811647754473
 30
0.0
 10
186.6460947624178
 20
179.6423832753696
 30
0.0
 10
186.6460947624178
 20
180.0041185399556
 30
0.0
  0
SPLINE
  5
17E
330
132
100
AcDbEntity
  8
Ebene 9
 62
   250
420
  2301728
370
     9
100
AcDbSpline
210
0.0
220
0.0
230
1.0
 70
     8
 71
     3
 72
     8
 73
     4
 74
     0
 42
0.0000000001
 43
0.0000000001
 40
0.0
 40
0.0
 40
0.0
 40
0.0
 40
1.0
 40
1.0
 40
1.0
 40
1.0
 10
186.6460947624178
 20
180.0041185399556
 30
0.0
 10
186.3422371401656
 20
180.0335741257861
 30
0.0
 10
186.013574814056
 20
180.0671638289263
 30
0.0
 10
185.7166073873197
 20
179.979658345874
 30
0.0
  0
SPLINE
  5
17F
330
132
100
AcDbEntity
  8
Ebene 9
 62
   250
420
  2301728
370
     9
100
AcDbSpline
210
0.0
220
0.0
230
1.0
 70
     8
 71
     3
 72
     8
 73
     4
 74
     0
 42
0.0000000001
 43
0.0000000001
 40
0.0
 40
0.0
 40
0.0
 40
0.0
 40
1.0
 40
1.0
 40
1.0
 40
1.0
 10
187.4777413611897
 20
178.9032375513989
 30
0.0
 10
187.3785225457604
 20
179.2582548753568
 30
0.0
 10
187.4515586182292
 20
179.6385936678358
 30
0.0
 10
187.4288209730267
 20
180.0041185399556
 30
0.0
  0
SPLINE
  5
180
330
132
100
AcDbEntity
  8
Ebene 9
 62
   250
420
  2301728
370
     9
100
AcDbSpline
210
0.0
220
0.0
230
1.0
 70
     8
 71
     3
 72
     8
 73
     4
 74
     0
 42
0.0000000001
 43
0.0000000001
 40
0.0
 40
0.0
 40
0.0
 40
0.0
 40
1.0
 40
1.0
 40
1.0
 40
1.0
 10
187.4288209730267
 20
180.0041185399556
 30
0.0
 10
187.1738837389375
 20
180.0401198115262
 30
0.0
 10
186.9013765062828
 20
180.0463209874906
 30
0.0
 10
186.6460947624178
 20
180.0041185399556
 30
0.0
  0
SPLINE
  5
181
330
132
100
AcDbEntity
  8
Ebene 9
 62
   250
420
  2301728
370
     9
100
AcDbSpline
210
0.0
220
0.0
230
1.0
 70
     8
 71
     3
 72
     8
 73
     4
 74
     0
 42
0.0000000001
 43
0.0000000001
 40
0.0
 40
0.0
 40
0.0
 40
0.0
 40
1.0
 40
1.0
 40
1.0
 40
1.0
 10
189.0924586803464
 20
178.8217609894231
 30
0.0
 10
189.0697210351438
 20
179.2430964452218
 30
0.0
 10
188.9357067323591
 20
179.644967098688
 30
0.0
 10
188.8964326179184
 20
180.0611349078498
 30
0.0
  0
SPLINE
  5
182
330
132
100
AcDbEntity
  8
Ebene 9
 62
   250
420
  2301728
370
     9
100
AcDbSpline
210
0.0
220
0.0
230
1.0
 70
     8
 71
     3
 72
     8
 73
     4
 74
     0
 42
0.0000000001
 43
0.0000000001
 40
0.0
 40
0.0
 40
0.0
 40
0.0
 40
1.0
 40
1.0
 40
1.0
 40
1.0
 10
188.8964326179184
 20
180.0611349078498
 30
0.0
 10
188.4099848144942
 20
180.032023831795
 30
0.0
 10
187.9194028937604
 20
180.0330573611224
 30
0.0
 10
187.4288209730267
 20
180.0041185399556
 30
0.0
  0
SPLINE
  5
183
330
132
100
AcDbEntity
  8
Ebene 9
 62
   250
420
  2301728
370
     9
100
AcDbSpline
210
0.0
220
0.0
230
1.0
 70
     8
 71
     3
 72
     8
 73
     4
 74
     0
 42
0.0000000001
 43
0.0000000001
 40
0.0
 40
0.0
 40
0.0
 40
0.0
 40
1.0
 40
1.0
 40
1.0
 40
1.0
 10
189.7773441146292
 20
178.8217609894231
 30
0.0
 10
189.7976701914011
 20
179.2460247783161
 30
0.0
 10
189.735313921982
 20
179.6695995476575
 30
0.0
 10
189.6309274599158
 20
180.0774991222001
 30
0.0
  0
SPLINE
  5
184
330
132
100
AcDbEntity
  8
Ebene 9
 62
   250
420
  2301728
370
     9
100
AcDbSpline
210
0.0
220
0.0
230
1.0
 70
     8
 71
     3
 72
     8
 73
     4
 74
     0
 42
0.0000000001
 43
0.0000000001
 40
0.0
 40
0.0
 40
0.0
 40
0.0
 40
1.0
 40
1.0
 40
1.0
 40
1.0
 10
189.6309274599158
 20
180.0774991222001
 30
0.0
 10
189.3859810093247
 20
180.0681973582536
 30
0.0
 10
189.1386229903031
 20
180.0971361794205
 30
0.0
 10
188.8964326179184
 20
180.0611349078498
 30
0.0
  0
SPLINE
  5
185
330
132
100
AcDbEntity
  8
Ebene 9
 62
   250
420
  2301728
370
     9
100
AcDbSpline
210
0.0
220
0.0
230
1.0
 70
     8
 71
     3
 72
     8
 73
     4
 74
     0
 42
0.0000000001
 43
0.0000000001
 40
0.0
 40
0.0
 40
0.0
 40
0.0
 40
1.0
 40
1.0
 40
1.0
 40
1.0
 10
172.727210800701
 20
178.2919049542486
 30
0.0
 10
180.4835038929759
 20
176.8110296829888
 30
0.0
 10
188.7203881224865
 20
177.4668040412168
 30
0.0
 10
196.4308614145806
 20
178.3649410267174
 30
0.0
  0
SPLINE
  5
186
330
132
100
AcDbEntity
  8
Ebene 9
 62
   250
420
  2301728
370
     9
100
AcDbSpline
210
0.0
220
0.0
230
1.0
 70
     8
 71
     3
 72
     8
 73
     4
 74
     0
 42
0.0000000001
 43
0.0000000001
 40
0.0
 40
0.0
 40
0.0
 40
0.0
 40
1.0
 40
1.0
 40
1.0
 40
1.0
 10
197.295580951829
 20
178.2836367196295
 30
0.0
 10
197.3114284015156
 20
178.8141817743556
 30
0.0
 10
197.8681561992022
 20
179.6695995476575
 30
0.0
 10
197.2135876251895
 20
179.9958503053364
 30
0.0
  0
SPLINE
  5
187
330
132
100
AcDbEntity
  8
Ebene 9
 62
   250
420
  2301728
370
     9
100
AcDbSpline
210
0.0
220
0.0
230
1.0
 70
     8
 71
     3
 72
     8
 73
     4
 74
     0
 42
0.0000000001
 43
0.0000000001
 40
0.0
 40
0.0
 40
0.0
 40
0.0
 40
1.0
 40
1.0
 40
1.0
 40
1.0
 10
197.2135876251895
 20
179.9958503053364
 30
0.0
 10
197.0499454816863
 20
179.9247090366345
 30
0.0
 10
196.8718339275997
 20
179.9004210974409
 30
0.0
 10
196.7002680592532
 20
179.8573573754664
 30
0.0
  0
SPLINE
  5
188
330
132
100
AcDbEntity
  8
Ebene 9
 62
   250
420
  2301728
370
     9
100
AcDbSpline
210
0.0
220
0.0
230
1.0
 70
     8
 71
     3
 72
     8
 73
     4
 74
     0
 42
0.0000000001
 43
0.0000000001
 40
0.0
 40
0.0
 40
0.0
 40
0.0
 40
1.0
 40
1.0
 40
1.0
 40
1.0
 10
196.7002680592532
 20
179.8573573754664
 30
0.0
 10
196.5524733654366
 20
179.678901311604
 30
0.0
 10
196.3071824050697
 20
179.619645630167
 30
0.0
 10
196.0884186974392
 20
179.5879507307938
 30
0.0
  0
SPLINE
  5
189
330
132
100
AcDbEntity
  8
Ebene 9
 62
   250
420
  2301728
370
     9
100
AcDbSpline
210
0.0
220
0.0
230
1.0
 70
     8
 71
     3
 72
     8
 73
     4
 74
     0
 42
0.0000000001
 43
0.0000000001
 40
0.0
 40
0.0
 40
0.0
 40
0.0
 40
1.0
 40
1.0
 40
1.0
 40
1.0
 10
196.0884186974392
 20
179.5879507307938
 30
0.0
 10
195.9016943989577
 20
179.513192109446
 30
0.0
 10
195.7025677485475
 20
179.4797746611938
 30
0.0
 10
195.5013740394825
 20
179.4904544642435
 30
0.0
  0
SPLINE
  5
18A
330
132
100
AcDbEntity
  8
Ebene 9
 62
   250
420
  2301728
370
     9
100
AcDbSpline
210
0.0
220
0.0
230
1.0
 70
     8
 71
     3
 72
     8
 73
     4
 74
     0
 42
0.0000000001
 43
0.0000000001
 40
0.0
 40
0.0
 40
0.0
 40
0.0
 40
1.0
 40
1.0
 40
1.0
 40
1.0
 10
195.5013740394825
 20
179.4904544642435
 30
0.0
 10
195.2967352326596
 20
179.2980457544613
 30
0.0
 10
194.9839203562367
 20
179.3064862439683
 30
0.0
 10
194.7186478288736
 20
179.2946006567033
 30
0.0
  0
SPLINE
  5
18B
330
132
100
AcDbEntity
  8
Ebene 9
 62
   250
420
  2301728
370
     9
100
AcDbSpline
210
0.0
220
0.0
230
1.0
 70
     8
 71
     3
 72
     8
 73
     4
 74
     0
 42
0.0000000001
 43
0.0000000001
 40
0.0
 40
0.0
 40
0.0
 40
0.0
 40
1.0
 40
1.0
 40
1.0
 40
1.0
 10
194.7186478288736
 20
179.2946006567033
 30
0.0
 10
194.1863802252685
 20
179.1940038021709
 30
0.0
 10
193.6610028171794
 20
179.0377686188473
 30
0.0
 10
193.103930509717
 20
179.0744589099696
 30
0.0
  0
SPLINE
  5
18C
330
132
100
AcDbEntity
  8
Ebene 9
 62
   250
420
  2301728
370
     9
100
AcDbSpline
210
0.0
220
0.0
230
1.0
 70
     8
 71
     3
 72
     8
 73
     4
 74
     0
 42
0.0000000001
 43
0.0000000001
 40
0.0
 40
0.0
 40
0.0
 40
0.0
 40
1.0
 40
1.0
 40
1.0
 40
1.0
 10
193.103930509717
 20
179.0744589099696
 30
0.0
 10
192.8524383733858
 20
178.9967719555275
 30
0.0
 10
192.5878548655743
 20
178.8973808852104
 30
0.0
 10
192.3212042991081
 20
178.9767903885314
 30
0.0
  0
SPLINE
  5
18D
330
132
100
AcDbEntity
  8
Ebene 9
 62
   250
420
  2301728
370
     9
100
AcDbSpline
210
0.0
220
0.0
230
1.0
 70
     8
 71
     3
 72
     8
 73
     4
 74
     0
 42
0.0000000001
 43
0.0000000001
 40
0.0
 40
0.0
 40
0.0
 40
0.0
 40
1.0
 40
1.0
 40
1.0
 40
1.0
 10
192.3212042991081
 20
178.9767903885314
 30
0.0
 10
192.0900382395488
 20
178.8312350082575
 30
0.0
 10
191.7982384594495
 20
178.8305459887059
 30
0.0
 10
191.5384780884992
 20
178.8789496122052
 30
0.0
  0
SPLINE
  5
18E
330
132
100
AcDbEntity
  8
Ebene 9
 62
   250
420
  2301728
370
     9
100
AcDbSpline
210
0.0
220
0.0
230
1.0
 70
     8
 71
     3
 72
     8
 73
     4
 74
     0
 42
0.0000000001
 43
0.0000000001
 40
0.0
 40
0.0
 40
0.0
 40
0.0
 40
1.0
 40
1.0
 40
1.0
 40
1.0
 10
191.5384780884992
 20
178.8789496122052
 30
0.0
 10
191.234620466247
 20
178.8493217714868
 30
0.0
 10
190.9056136303616
 20
178.8159043232345
 30
0.0
 10
190.6089907134011
 20
178.9032375513989
 30
0.0
  0
SPLINE
  5
18F
330
132
100
AcDbEntity
  8
Ebene 9
 62
   250
420
  2301728
370
     9
100
AcDbSpline
210
0.0
220
0.0
230
1.0
 70
     8
 71
     3
 72
     8
 73
     4
 74
     0
 42
0.0000000001
 43
0.0000000001
 40
0.0
 40
0.0
 40
0.0
 40
0.0
 40
1.0
 40
1.0
 40
1.0
 40
1.0
 10
190.6089907134011
 20
178.9032375513989
 30
0.0
 10
190.3392395589527
 20
178.8508720654779
 30
0.0
 10
190.0557080134725
 20
178.7809365809912
 30
0.0
 10
189.7773441146292
 20
178.8217609894231
 30
0.0
  0
SPLINE
  5
190
330
132
100
AcDbEntity
  8
Ebene 9
 62
   250
420
  2301728
370
     9
100
AcDbSpline
210
0.0
220
0.0
230
1.0
 70
     8
 71
     3
 72
     8
 73
     4
 74
     0
 42
0.0000000001
 43
0.0000000001
 40
0.0
 40
0.0
 40
0.0
 40
0.0
 40
1.0
 40
1.0
 40
1.0
 40
1.0
 10
189.7773441146292
 20
178.8217609894231
 30
0.0
 10
189.5513457017069
 20
178.7981620697811
 30
0.0
 10
189.3181125834929
 20
178.7935111878078
 30
0.0
 10
189.0924586803464
 20
178.8217609894231
 30
0.0
  0
SPLINE
  5
191
330
132
100
AcDbEntity
  8
Ebene 9
 62
   250
420
  2301728
370
     9
100
AcDbSpline
210
0.0
220
0.0
230
1.0
 70
     8
 71
     3
 72
     8
 73
     4
 74
     0
 42
0.0000000001
 43
0.0000000001
 40
0.0
 40
0.0
 40
0.0
 40
0.0
 40
1.0
 40
1.0
 40
1.0
 40
1.0
 10
189.0924586803464
 20
178.8217609894231
 30
0.0
 10
188.5567459789833
 20
178.8136650096919
 30
0.0
 10
188.0058748474853
 20
178.8367471646702
 30
0.0
 10
187.4777413611897
 20
178.9032375513989
 30
0.0
  0
SPLINE
  5
192
330
132
100
AcDbEntity
  8
Ebene 9
 62
   250
420
  2301728
370
     9
100
AcDbSpline
210
0.0
220
0.0
230
1.0
 70
     8
 71
     3
 72
     8
 73
     4
 74
     0
 42
0.0000000001
 43
0.0000000001
 40
0.0
 40
0.0
 40
0.0
 40
0.0
 40
1.0
 40
1.0
 40
1.0
 40
1.0
 10
187.4777413611897
 20
178.9032375513989
 30
0.0
 10
187.2100572653961
 20
178.8090141277186
 30
0.0
 10
186.9165349364178
 20
178.8584512805454
 30
0.0
 10
186.6460947624178
 20
178.9196017657492
 30
0.0
  0
SPLINE
  5
193
330
132
100
AcDbEntity
  8
Ebene 9
 62
   250
420
  2301728
370
     9
100
AcDbSpline
210
0.0
220
0.0
230
1.0
 70
     8
 71
     3
 72
     8
 73
     4
 74
     0
 42
0.0000000001
 43
0.0000000001
 40
0.0
 40
0.0
 40
0.0
 40
0.0
 40
1.0
 40
1.0
 40
1.0
 40
1.0
 10
186.6460947624178
 20
178.9196017657492
 30
0.0
 10
186.3580845898522
 20
178.9516411748982
 30
0.0
 10
186.0549159871516
 20
178.9361382349874
 30
0.0
 10
185.7655277754828
 20
178.9767903885314
 30
0.0
  0
SPLINE
  5
194
330
132
100
AcDbEntity
  8
Ebene 9
 62
   250
420
  2301728
370
     9
100
AcDbSpline
210
0.0
220
0.0
230
1.0
 70
     8
 71
     3
 72
     8
 73
     4
 74
     0
 42
0.0000000001
 43
0.0000000001
 40
0.0
 40
0.0
 40
0.0
 40
0.0
 40
1.0
 40
1.0
 40
1.0
 40
1.0
 10
185.7655277754828
 20
178.9767903885314
 30
0.0
 10
185.4616701532306
 20
178.9473348027008
 30
0.0
 10
185.1326633173452
 20
178.9135728446728
 30
0.0
 10
184.8356958906089
 20
179.001078327725
 30
0.0
  0
SPLINE
  5
195
330
132
100
AcDbEntity
  8
Ebene 9
 62
   250
420
  2301728
370
     9
100
AcDbSpline
210
0.0
220
0.0
230
1.0
 70
     8
 71
     3
 72
     8
 73
     4
 74
     0
 42
0.0000000001
 43
0.0000000001
 40
0.0
 40
0.0
 40
0.0
 40
0.0
 40
1.0
 40
1.0
 40
1.0
 40
1.0
 10
184.8356958906089
 20
179.001078327725
 30
0.0
 10
184.5063445449478
 20
178.919946275525
 30
0.0
 10
184.1446092803618
 20
178.9418226462881
 30
0.0
 10
183.8083677391847
 20
178.9767903885314
 30
0.0
  0
SPLINE
  5
196
330
132
100
AcDbEntity
  8
Ebene 9
 62
   250
420
  2301728
370
     9
100
AcDbSpline
210
0.0
220
0.0
230
1.0
 70
     8
 71
     3
 72
     8
 73
     4
 74
     0
 42
0.0000000001
 43
0.0000000001
 40
0.0
 40
0.0
 40
0.0
 40
0.0
 40
1.0
 40
1.0
 40
1.0
 40
1.0
 10
181.1666667783797
 20
178.9767903885314
 30
0.0
 10
181.5097985150727
 20
178.9366549996511
 30
0.0
 10
181.8494851540077
 20
178.8904906896944
 30
0.0
 10
182.1943394395797
 20
178.9523301944498
 30
0.0
  0
SPLINE
  5
197
330
132
100
AcDbEntity
  8
Ebene 9
 62
   250
420
  2301728
370
     9
100
AcDbSpline
210
0.0
220
0.0
230
1.0
 70
     8
 71
     3
 72
     8
 73
     4
 74
     0
 42
0.0000000001
 43
0.0000000001
 40
0.0
 40
0.0
 40
0.0
 40
0.0
 40
1.0
 40
1.0
 40
1.0
 40
1.0
 10
182.1943394395797
 20
178.9523301944498
 30
0.0
 10
182.2346470833479
 20
179.2751358543709
 30
0.0
 10
182.2577292383262
 20
179.6008698473861
 30
0.0
 10
182.2432598277427
 20
179.930737957711
 30
0.0
  0
SPLINE
  5
198
330
132
100
AcDbEntity
  8
Ebene 9
 62
   250
420
  2301728
370
     9
100
AcDbSpline
210
0.0
220
0.0
230
1.0
 70
     8
 71
     3
 72
     8
 73
     4
 74
     0
 42
0.0000000001
 43
0.0000000001
 40
0.0
 40
0.0
 40
0.0
 40
0.0
 40
1.0
 40
1.0
 40
1.0
 40
1.0
 10
182.1943394395797
 20
178.9523301944498
 30
0.0
 10
182.4310176555517
 20
178.9158121582155
 30
0.0
 10
182.7014578295517
 20
178.8477714774957
 30
0.0
 10
182.9278007522497
 20
178.9523301944498
 30
0.0
  0
SPLINE
  5
199
330
132
100
AcDbEntity
  8
Ebene 9
 62
   250
420
  2301728
370
     9
100
AcDbSpline
210
0.0
220
0.0
230
1.0
 70
     8
 71
     3
 72
     8
 73
     4
 74
     0
 42
0.0000000001
 43
0.0000000001
 40
0.0
 40
0.0
 40
0.0
 40
0.0
 40
1.0
 40
1.0
 40
1.0
 40
1.0
 10
182.9278007522497
 20
178.9523301944498
 30
0.0
 10
182.8761242858803
 20
179.2877104611874
 30
0.0
 10
183.0972995619414
 20
179.5645240660396
 30
0.0
 10
183.0259860383516
 20
179.9061055087415
 30
0.0
  0
SPLINE
  5
19A
330
132
100
AcDbEntity
  8
Ebene 9
 62
   250
420
  2301728
370
     9
100
AcDbSpline
210
0.0
220
0.0
230
1.0
 70
     8
 71
     3
 72
     8
 73
     4
 74
     0
 42
0.0000000001
 43
0.0000000001
 40
0.0
 40
0.0
 40
0.0
 40
0.0
 40
1.0
 40
1.0
 40
1.0
 40
1.0
 10
182.9278007522497
 20
178.9523301944498
 30
0.0
 10
183.2233901398828
 20
178.9189127461976
 30
0.0
 10
183.5165679590854
 20
178.8925577483492
 30
0.0
 10
183.8083677391847
 20
178.9767903885314
 30
0.0
  0
SPLINE
  5
19B
330
132
100
AcDbEntity
  8
Ebene 9
 62
   250
420
  2301728
370
     9
100
AcDbSpline
210
0.0
220
0.0
230
1.0
 70
     8
 71
     3
 72
     8
 73
     4
 74
     0
 42
0.0000000001
 43
0.0000000001
 40
0.0
 40
0.0
 40
0.0
 40
0.0
 40
1.0
 40
1.0
 40
1.0
 40
1.0
 10
183.8083677391847
 20
178.9767903885314
 30
0.0
 10
183.8280047964051
 20
179.2932226176002
 30
0.0
 10
183.7739167616051
 20
179.6000085729466
 30
0.0
 10
183.7108714726344
 20
179.9061055087415
 30
0.0
  0
SPLINE
  5
19C
330
132
100
AcDbEntity
  8
Ebene 9
 62
   250
420
  2301728
370
     9
100
AcDbSpline
210
0.0
220
0.0
230
1.0
 70
     8
 71
     3
 72
     8
 73
     4
 74
     0
 42
0.0000000001
 43
0.0000000001
 40
0.0
 40
0.0
 40
0.0
 40
0.0
 40
1.0
 40
1.0
 40
1.0
 40
1.0
 10
184.8356958906089
 20
179.001078327725
 30
0.0
 10
184.7406111924892
 20
179.3099313417263
 30
0.0
 10
184.806757069442
 20
179.6437613144728
 30
0.0
 10
184.7867755024459
 20
179.9632941315237
 30
0.0
  0
SPLINE
  5
19D
330
132
100
AcDbEntity
  8
Ebene 9
 62
   250
420
  2301728
370
     9
100
AcDbSpline
210
0.0
220
0.0
230
1.0
 70
     8
 71
     3
 72
     8
 73
     4
 74
     0
 42
0.0000000001
 43
0.0000000001
 40
0.0
 40
0.0
 40
0.0
 40
0.0
 40
1.0
 40
1.0
 40
1.0
 40
1.0
 10
184.7867755024459
 20
179.9632941315237
 30
0.0
 10
184.429863374721
 20
179.9849982473989
 30
0.0
 10
184.0571037973096
 20
180.0156596174447
 30
0.0
 10
183.7108714726344
 20
179.9061055087415
 30
0.0
  0
SPLINE
  5
19E
330
132
100
AcDbEntity
  8
Ebene 9
 62
   250
420
  2301728
370
     9
100
AcDbSpline
210
0.0
220
0.0
230
1.0
 70
     8
 71
     3
 72
     8
 73
     4
 74
     0
 42
0.0000000001
 43
0.0000000001
 40
0.0
 40
0.0
 40
0.0
 40
0.0
 40
1.0
 40
1.0
 40
1.0
 40
1.0
 10
185.7655277754828
 20
178.9767903885314
 30
0.0
 10
185.7403785618497
 20
179.3095868319505
 30
0.0
 10
185.8196158102828
 20
179.6578862152804
 30
0.0
 10
185.7166073873197
 20
179.979658345874
 30
0.0
  0
SPLINE
  5
19F
330
132
100
AcDbEntity
  8
Ebene 9
 62
   250
420
  2301728
370
     9
100
AcDbSpline
210
0.0
220
0.0
230
1.0
 70
     8
 71
     3
 72
     8
 73
     4
 74
     0
 42
0.0000000001
 43
0.0000000001
 40
0.0
 40
0.0
 40
0.0
 40
0.0
 40
1.0
 40
1.0
 40
1.0
 40
1.0
 10
185.7166073873197
 20
179.979658345874
 30
0.0
 10
185.4075821184306
 20
179.9698398172638
 30
0.0
 10
185.0944227322318
 20
179.999984422646
 30
0.0
 10
184.7867755024459
 20
179.9632941315237
 30
0.0
  0
SPLINE
  5
1A0
330
132
100
AcDbEntity
  8
Ebene 9
 62
   250
420
  2301728
370
     9
100
AcDbSpline
210
0.0
220
0.0
230
1.0
 70
     8
 71
     3
 72
     8
 73
     4
 74
     0
 42
0.0000000001
 43
0.0000000001
 40
0.0
 40
0.0
 40
0.0
 40
0.0
 40
1.0
 40
1.0
 40
1.0
 40
1.0
 10
197.7193279760583
 20
176.7178397886359
 30
0.0
 10
197.7627362078086
 20
176.9353977120512
 30
0.0
 10
197.7120932707665
 20
177.1629464189645
 30
0.0
 10
197.6783313127385
 20
177.3867055183441
 30
0.0
  0
SPLINE
  5
1A1
330
132
100
AcDbEntity
  8
Ebene 9
 62
   250
420
  2301728
370
     9
100
AcDbSpline
210
0.0
220
0.0
230
1.0
 70
     8
 71
     3
 72
     8
 73
     4
 74
     0
 42
0.0000000001
 43
0.0000000001
 40
0.0
 40
0.0
 40
0.0
 40
0.0
 40
1.0
 40
1.0
 40
1.0
 40
1.0
 10
197.6783313127385
 20
177.3867055183441
 30
0.0
 10
194.2594162977373
 20
176.2462059055709
 30
0.0
 10
190.524585818331
 20
175.6433137979276
 30
0.0
 10
186.8421208248458
 20
175.5032705740665
 30
0.0
  0
SPLINE
  5
1A2
330
132
100
AcDbEntity
  8
Ebene 9
 62
   250
420
  2301728
370
     9
100
AcDbSpline
210
0.0
220
0.0
230
1.0
 70
     8
 71
     3
 72
     8
 73
     4
 74
     0
 42
0.0000000001
 43
0.0000000001
 40
0.0
 40
0.0
 40
0.0
 40
0.0
 40
1.0
 40
1.0
 40
1.0
 40
1.0
 10
172.8333198116462
 20
176.8158528198499
 30
0.0
 10
177.2919653300002
 20
175.3246422553162
 30
0.0
 10
182.1629890499822
 20
175.1520428576423
 30
0.0
 10
186.8421208248458
 20
175.2014800104691
 30
0.0
  0
SPLINE
  5
1A3
330
132
100
AcDbEntity
  8
Ebene 9
 62
   250
420
  2301728
370
     9
100
AcDbSpline
210
0.0
220
0.0
230
1.0
 70
    24
 71
     3
 72
     8
 73
     4
 74
     0
 42
0.0000000001
 43
0.0000000001
 40
0.0
 40
0.0
 40
0.0
 40
0.0
 40
1.0
 40
1.0
 40
1.0
 40
1.0
 10
186.8421208248458
 20
175.2014800104691
 30
0.0
 10
186.8421208248458
 20
175.2734825536104
 30
0.0
 10
186.8421208248458
 20
175.3768354863493
 30
0.0
 10
186.8421208248458
 20
175.5032705740665
 30
0.0
  0
SPLINE
  5
1A4
330
132
100
AcDbEntity
  8
Ebene 9
 62
   250
420
  2301728
370
     9
100
AcDbSpline
210
0.0
220
0.0
230
1.0
 70
     8
 71
     3
 72
     8
 73
     4
 74
     0
 42
0.0000000001
 43
0.0000000001
 40
0.0
 40
0.0
 40
0.0
 40
0.0
 40
1.0
 40
1.0
 40
1.0
 40
1.0
 10
196.8714894178239
 20
175.3809696036589
 30
0.0
 10
197.4502658411614
 20
175.5384105711977
 30
0.0
 10
198.7745614193219
 20
176.2031421835964
 30
0.0
 10
197.7193279760583
 20
176.7178397886359
 30
0.0
  0
SPLINE
  5
1A5
330
132
100
AcDbEntity
  8
Ebene 9
 62
   250
420
  2301728
370
     9
100
AcDbSpline
210
0.0
220
0.0
230
1.0
 70
     8
 71
     3
 72
     8
 73
     4
 74
     0
 42
0.0000000001
 43
0.0000000001
 40
0.0
 40
0.0
 40
0.0
 40
0.0
 40
1.0
 40
1.0
 40
1.0
 40
1.0
 10
197.7193279760583
 20
176.7178397886359
 30
0.0
 10
194.3861958952303
 20
175.3642608795327
 30
0.0
 10
190.4518942556381
 20
175.6526155618741
 30
0.0
 10
186.8421208248458
 20
175.2014800104691
 30
0.0
  0
SPLINE
  5
1A6
330
132
100
AcDbEntity
  8
Ebene 9
 62
   250
420
  2301728
370
     9
100
AcDbSpline
210
0.0
220
0.0
230
1.0
 70
     8
 71
     3
 72
     8
 73
     4
 74
     0
 42
0.0000000001
 43
0.0000000001
 40
0.0
 40
0.0
 40
0.0
 40
0.0
 40
1.0
 40
1.0
 40
1.0
 40
1.0
 10
196.8714894178239
 20
174.5002303618359
 30
0.0
 10
196.9421139218621
 20
174.7810058291098
 30
0.0
 10
196.952449215136
 20
175.1010554108245
 30
0.0
 10
196.8714894178239
 20
175.3809696036589
 30
0.0
  0
SPLINE
  5
1A7
330
132
100
AcDbEntity
  8
Ebene 9
 62
   250
420
  2301728
370
     9
100
AcDbSpline
210
0.0
220
0.0
230
1.0
 70
     8
 71
     3
 72
     8
 73
     4
 74
     0
 42
0.0000000001
 43
0.0000000001
 40
0.0
 40
0.0
 40
0.0
 40
0.0
 40
1.0
 40
1.0
 40
1.0
 40
1.0
 10
196.8714894178239
 20
175.3809696036589
 30
0.0
 10
189.0838459359515
 20
173.6883930751723
 30
0.0
 10
180.6044268242804
 20
174.2433983239799
 30
0.0
 10
172.7757866790882
 20
175.7234123208003
 30
0.0
  0
SPLINE
  5
1A8
330
132
100
AcDbEntity
  8
Ebene 9
 62
   250
420
  2301728
370
     9
100
AcDbSpline
210
0.0
220
0.0
230
1.0
 70
     8
 71
     3
 72
    20
 73
    16
 74
     0
 42
0.0000000001
 43
0.0000000001
 40
0.0
 40
0.0
 40
0.0
 40
0.0
 40
1.0
 40
1.0
 40
1.0
 40
2.0
 40
2.0
 40
2.0
 40
3.0
 40
3.0
 40
3.0
 40
4.0
 40
4.0
 40
4.0
 40
5.0
 40
5.0
 40
5.0
 40
5.0
 10
172.6703666876946
 20
173.4565379960615
 30
0.0
 10
172.6820800200717
 20
173.4599830938194
 30
0.0
 10
172.6944823720003
 20
173.4639449562411
 30
0.0
 10
172.706884723929
 20
173.467390053999
 30
0.0
 10
176.4441267717658
 20
171.8984925350233
 30
0.0
 10
180.687798190023
 20
172.5134424848194
 30
0.0
 10
184.6382917890777
 20
171.9112393967278
 30
0.0
 10
188.8964326179184
 20
172.3208615201494
 30
0.0
 10
193.7939835906367
 20
171.3441763057673
 30
0.0
 10
197.5301921091462
 20
173.7414475806449
 30
0.0
 10
197.5518962250213
 20
173.7889899297048
 30
0.0
 10
197.5729113213449
 20
173.8251634561634
 30
0.0
 10
197.5932373981169
 20
173.861336982622
 30
0.0
 10
197.576011909327
 20
174.2244502863111
 30
0.0
 10
197.1663897859054
 20
174.3861976260474
 30
0.0
 10
196.8714894178239
 20
174.5002303618359
 30
0.0
  0
SPLINE
  5
1A9
330
132
100
AcDbEntity
  8
Ebene 9
 62
   250
420
  2301728
370
     9
100
AcDbSpline
210
0.0
220
0.0
230
1.0
 70
     8
 71
     3
 72
    14
 73
    10
 74
     0
 42
0.0000000001
 43
0.0000000001
 40
0.0
 40
0.0
 40
0.0
 40
0.0
 40
1.0
 40
1.0
 40
1.0
 40
2.0
 40
2.0
 40
2.0
 40
3.0
 40
3.0
 40
3.0
 40
3.0
 10
196.8714894178239
 20
174.5002303618359
 30
0.0
 10
195.0021793743539
 20
173.6610045479965
 30
0.0
 10
193.0374401229883
 20
173.3628313370449
 30
0.0
 10
190.9042355912584
 20
173.2732587953379
 30
0.0
 10
184.9852131333045
 20
173.0243504823252
 30
0.0
 10
178.262449368418
 20
173.2248551718385
 30
0.0
 10
172.8105821664437
 20
174.8042602389761
 30
0.0
 10
172.7637288369354
 20
174.8733344490232
 30
0.0
 10
172.7061957043774
 20
174.9272502289353
 30
0.0
 10
172.629025514599
 20
175.0385268865175
 30
0.0
  0
SPLINE
  5
1AA
330
132
100
AcDbEntity
  8
Ebene 9
 62
   250
420
  2301728
370
     9
100
AcDbSpline
210
0.0
220
0.0
230
1.0
 70
     8
 71
     3
 72
     8
 73
     4
 74
     0
 42
0.0000000001
 43
0.0000000001
 40
0.0
 40
0.0
 40
0.0
 40
0.0
 40
1.0
 40
1.0
 40
1.0
 40
1.0
 10
174.0236010870219
 20
136.6818419786994
 30
0.0
 10
180.0166931467721
 20
137.9696195206255
 30
0.0
 10
186.6109547652866
 20
138.6834437760752
 30
0.0
 10
192.5661507496991
 20
136.9264439195147
 30
0.0
  0
ENDBLK
  5
135
330
132
100
AcDbEntity
  8
0
100
AcDbBlockEnd
  0
BLOCK
  5
1B1
330
1AF
100
AcDbEntity
  8
0
100
AcDbBlockBegin
  2
block 6
 70
     0
 71
     0
 10
0.0
 20
0.0
 30
0.0
  3
block 6
  1

  0
SPLINE
  5
1B3
330
1AF
100
AcDbEntity
  8
Ebene 9
 62
   250
420
  2301728
370
     9
100
AcDbSpline
210
0.0
220
0.0
230
1.0
 70
    11
 71
     3
 72
    35
 73
    31
 74
     0
 42
0.0000000001
 43
0.0000000001
 40
0.0
 40
0.0
 40
0.0
 40
0.0
 40
1.0
 40
1.0
 40
1.0
 40
2.0
 40
2.0
 40
2.0
 40
3.0
 40
3.0
 40
3.0
 40
4.0
 40
4.0
 40
4.0
 40
5.0
 40
5.0
 40
5.0
 40
6.0
 40
6.0
 40
6.0
 40
7.0
 40
7.0
 40
7.0
 40
8.0
 40
8.0
 40
8.0
 40
9.0
 40
9.0
 40
9.0
 40
10.0
 40
10.0
 40
10.0
 40
10.0
 10
117.2737115043343
 20
157.9012325993128
 30
0.0
 10
117.5486303054197
 20
157.7722136882772
 30
0.0
 10
117.8307838117967
 20
157.7145083008313
 30
0.0
 10
118.1196552588018
 20
157.7320782993969
 30
0.0
 10
118.269861521049
 20
157.747064474644
 30
0.0
 10
118.4147278817713
 20
157.7834102559906
 30
0.0
 10
118.5540820860808
 20
157.8411156434364
 30
0.0
 10
118.6929195257267
 20
157.8991655406581
 30
0.0
 10
118.8152204961343
 20
157.9754744559969
 30
0.0
 10
118.9196069582005
 20
158.0705591541167
 30
0.0
 10
119.0243379300426
 20
158.1652993424606
 30
0.0
 10
119.1032306686999
 20
158.2758869804912
 30
0.0
 10
119.1557684095088
 20
158.4011162839931
 30
0.0
 10
119.2086506600935
 20
158.5261733326071
 30
0.0
 10
119.2236368353407
 20
158.6634604782619
 30
0.0
 10
119.2014159548018
 20
158.8121164465179
 30
0.0
 10
119.1681707614375
 20
159.0951312273345
 30
0.0
 10
119.0189980285177
 20
159.3030428770275
 30
0.0
 10
118.7542422658184
 20
159.4384352189153
 30
0.0
 10
118.4896587580069
 20
159.5727940314759
 30
0.0
 10
118.19027976284
 20
159.6118958910287
 30
0.0
 10
117.8561052803178
 20
159.5600471697714
 30
0.0
 10
117.5214140331318
 20
159.5076816838504
 30
0.0
 10
117.2525241531229
 20
159.388309046537
 30
0.0
 10
117.0502969147305
 20
159.2026182773829
 30
0.0
 10
116.8478974214503
 20
159.0158939789013
 30
0.0
 10
116.7688324279051
 20
158.78490017423
 30
0.0
 10
116.8124129145433
 20
158.501024118974
 30
0.0
 10
116.8447968334681
 20
158.2314452194135
 30
0.0
 10
116.9982759385853
 20
158.0307682750122
 30
0.0
 10
117.2737115043343
 20
157.9012325993128
 30
0.0
  0
SPLINE
  5
1B4
330
1AF
100
AcDbEntity
  8
Ebene 9
 62
   250
420
  2301728
370
     9
100
AcDbSpline
210
0.0
220
0.0
230
1.0
 70
    11
 71
     3
 72
   326
 73
   322
 74
     0
 42
0.0000000001
 43
0.0000000001
 40
0.0
 40
0.0
 40
0.0
 40
0.0
 40
1.0
 40
1.0
 40
1.0
 40
2.0
 40
2.0
 40
2.0
 40
3.0
 40
3.0
 40
3.0
 40
4.0
 40
4.0
 40
4.0
 40
5.0
 40
5.0
 40
5.0
 40
6.0
 40
6.0
 40
6.0
 40
7.0
 40
7.0
 40
7.0
 40
8.0
 40
8.0
 40
8.0
 40
9.0
 40
9.0
 40
9.0
 40
10.0
 40
10.0
 40
10.0
 40
11.0
 40
11.0
 40
11.0
 40
12.0
 40
12.0
 40
12.0
 40
13.0
 40
13.0
 40
13.0
 40
14.0
 40
14.0
 40
14.0
 40
15.0
 40
15.0
 40
15.0
 40
16.0
 40
16.0
 40
16.0
 40
17.0
 40
17.0
 40
17.0
 40
18.0
 40
18.0
 40
18.0
 40
19.0
 40
19.0
 40
19.0
 40
20.0
 40
20.0
 40
20.0
 40
21.0
 40
21.0
 40
21.0
 40
22.0
 40
22.0
 40
22.0
 40
23.0
 40
23.0
 40
23.0
 40
24.0
 40
24.0
 40
24.0
 40
25.0
 40
25.0
 40
25.0
 40
26.0
 40
26.0
 40
26.0
 40
27.0
 40
27.0
 40
27.0
 40
28.0
 40
28.0
 40
28.0
 40
29.0
 40
29.0
 40
29.0
 40
30.0
 40
30.0
 40
30.0
 40
31.0
 40
31.0
 40
31.0
 40
32.0
 40
32.0
 40
32.0
 40
33.0
 40
33.0
 40
33.0
 40
34.0
 40
34.0
 40
34.0
 40
35.0
 40
35.0
 40
35.0
 40
36.0
 40
36.0
 40
36.0
 40
37.0
 40
37.0
 40
37.0
 40
38.0
 40
38.0
 40
38.0
 40
39.0
 40
39.0
 40
39.0
 40
40.0
 40
40.0
 40
40.0
 40
41.0
 40
41.0
 40
41.0
 40
42.0
 40
42.0
 40
42.0
 40
43.0
 40
43.0
 40
43.0
 40
44.0
 40
44.0
 40
44.0
 40
45.0
 40
45.0
 40
45.0
 40
46.0
 40
46.0
 40
46.0
 40
47.0
 40
47.0
 40
47.0
 40
48.0
 40
48.0
 40
48.0
 40
49.0
 40
49.0
 40
49.0
 40
50.0
 40
50.0
 40
50.0
 40
51.0
 40
51.0
 40
51.0
 40
52.0
 40
52.0
 40
52.0
 40
53.0
 40
53.0
 40
53.0
 40
54.0
 40
54.0
 40
54.0
 40
55.0
 40
55.0
 40
55.0
 40
56.0
 40
56.0
 40
56.0
 40
57.0
 40
57.0
 40
57.0
 40
58.0
 40
58.0
 40
58.0
 40
59.0
 40
59.0
 40
59.0
 40
60.0
 40
60.0
 40
60.0
 40
61.0
 40
61.0
 40
61.0
 40
62.0
 40
62.0
 40
62.0
 40
63.0
 40
63.0
 40
63.0
 40
64.0
 40
64.0
 40
64.0
 40
65.0
 40
65.0
 40
65.0
 40
66.0
 40
66.0
 40
66.0
 40
67.0
 40
67.0
 40
67.0
 40
68.0
 40
68.0
 40
68.0
 40
69.0
 40
69.0
 40
69.0
 40
70.0
 40
70.0
 40
70.0
 40
71.0
 40
71.0
 40
71.0
 40
72.0
 40
72.0
 40
72.0
 40
73.0
 40
73.0
 40
73.0
 40
74.0
 40
74.0
 40
74.0
 40
75.0
 40
75.0
 40
75.0
 40
76.0
 40
76.0
 40
76.0
 40
77.0
 40
77.0
 40
77.0
 40
78.0
 40
78.0
 40
78.0
 40
79.0
 40
79.0
 40
79.0
 40
80.0
 40
80.0
 40
80.0
 40
81.0
 40
81.0
 40
81.0
 40
82.0
 40
82.0
 40
82.0
 40
83.0
 40
83.0
 40
83.0
 40
84.0
 40
84.0
 40
84.0
 40
85.0
 40
85.0
 40
85.0
 40
86.0
 40
86.0
 40
86.0
 40
87.0
 40
87.0
 40
87.0
 40
88.0
 40
88.0
 40
88.0
 40
89.0
 40
89.0
 40
89.0
 40
90.0
 40
90.0
 40
90.0
 40
91.0
 40
91.0
 40
91.0
 40
92.0
 40
92.0
 40
92.0
 40
93.0
 40
93.0
 40
93.0
 40
94.0
 40
94.0
 40
94.0
 40
95.0
 40
95.0
 40
95.0
 40
96.0
 40
96.0
 40
96.0
 40
97.0
 40
97.0
 40
97.0
 40
98.0
 40
98.0
 40
98.0
 40
99.0
 40
99.0
 40
99.0
 40
100.0
 40
100.0
 40
100.0
 40
101.0
 40
101.0
 40
101.0
 40
102.0
 40
102.0
 40
102.0
 40
103.0
 40
103.0
 40
103.0
 40
104.0
 40
104.0
 40
104.0
 40
105.0
 40
105.0
 40
105.0
 40
106.0
 40
106.0
 40
106.0
 40
107.0
 40
107.0
 40
107.0
 40
107.0
 10
127.9321549479162
 20
156.3288899825791
 30
0.0
 10
127.8875409319506
 20
156.3809109587243
 30
0.0
 10
127.8312135836079
 20
156.4046821332543
 30
0.0
 10
127.7642064322156
 20
156.3998589963931
 30
0.0
 10
127.6971992808232
 20
156.3945190948683
 30
0.0
 10
127.6269192865608
 20
156.3659247834772
 30
0.0
 10
127.553883214092
 20
156.3128702780046
 30
0.0
 10
127.4810193965111
 20
156.259815772532
 30
0.0
 10
127.4279648910385
 20
156.1759276421256
 30
0.0
 10
127.3947196976742
 20
156.0598278476823
 30
0.0
 10
127.3723265622474
 20
155.9704275608632
 30
0.0
 10
127.3225448996449
 20
155.8240109061499
 30
0.0
 10
127.2443411805392
 20
155.61747729556
 30
0.0
 10
127.1663097163213
 20
155.4107714300823
 30
0.0
 10
127.0713972730895
 20
155.1799498802989
 30
0.0
 10
126.9604651252831
 20
154.9248403913219
 30
0.0
 10
126.8490162128131
 20
154.6683528632416
 30
0.0
 10
126.7203418115532
 20
154.3970514148021
 30
0.0
 10
126.5751309410551
 20
154.1090412422365
 30
0.0
 10
126.4292310510054
 20
153.820858814783
 30
0.0
 10
126.2779912594309
 20
153.5598926596174
 30
0.0
 10
126.1200335272284
 20
153.3275208158429
 30
0.0
 10
125.9619035401379
 20
153.0953212269563
 30
0.0
 10
125.7977446319711
 20
152.9017067329588
 30
0.0
 10
125.6268677831762
 20
152.7490889022811
 30
0.0
 10
125.4554741697176
 20
152.5956097971639
 30
0.0
 10
125.2951048690844
 20
152.5267078420047
 30
0.0
 10
125.1450708617252
 20
152.544794605234
 30
0.0
 10
125.0289710672819
 20
152.5568524473869
 30
0.0
 10
124.9388817609112
 20
152.6286827356404
 30
0.0
 10
124.8746306877252
 20
152.759424195555
 30
0.0
 10
124.8096905949876
 20
152.8893043810302
 30
0.0
 10
124.7621482459278
 20
153.056908386955
 30
0.0
 10
124.7321758954335
 20
153.2606859193384
 30
0.0
 10
124.7015145253877
 20
153.4648079614977
 30
0.0
 10
124.6879063892437
 20
153.6985578443754
 30
0.0
 10
124.6918682516654
 20
153.9614188033079
 30
0.0
 10
124.6960023689749
 20
154.2242797622403
 30
0.0
 10
124.7142613870921
 20
154.4962702302314
 30
0.0
 10
124.7473343255685
 20
154.7761844230658
 30
0.0
 10
124.8737694132857
 20
154.8080515773269
 30
0.0
 10
125.0207028326628
 20
154.8509430444136
 30
0.0
 10
125.1877900739239
 20
154.9053755889894
 30
0.0
 10
125.3541882956335
 20
154.9596358786773
 30
0.0
 10
125.5174859293609
 20
155.0312939120429
 30
0.0
 10
125.6781997397698
 20
155.1193161597588
 30
0.0
 10
125.8380522757392
 20
155.2071661525868
 30
0.0
 10
125.9856747146679
 20
155.3093133011104
 30
0.0
 10
126.1217560761073
 20
155.4250685857779
 30
0.0
 10
126.2585264570984
 20
155.5403071057817
 30
0.0
 10
126.3711811537838
 20
155.676732976997
 30
0.0
 10
126.4614427150424
 20
155.8319346309931
 30
0.0
 10
126.5740974117277
 20
156.0165918708199
 30
0.0
 10
126.620950741236
 20
156.2477579303791
 30
0.0
 10
126.6021749584551
 20
156.5287056525409
 30
0.0
 10
126.5830546658984
 20
156.8101701393664
 30
0.0
 10
126.5160475145061
 20
157.076131686281
 30
0.0
 10
126.3999477200628
 20
157.333135979025
 30
0.0
 10
126.2840201805073
 20
157.589968016881
 30
0.0
 10
126.1193445076768
 20
157.8095929989511
 30
0.0
 10
125.905920701571
 20
157.995628277881
 30
0.0
 10
125.6921523856895
 20
158.181491301923
 30
0.0
 10
125.4477226997622
 20
158.266068451881
 30
0.0
 10
125.1714258595736
 20
158.2429862969026
 30
0.0
 10
124.8841047065596
 20
158.2199041419243
 30
0.0
 10
124.6227940416182
 20
158.0386919998555
 30
0.0
 10
124.3885273940768
 20
157.6909093811893
 30
0.0
 10
124.1540884916475
 20
157.3434712722988
 30
0.0
 10
123.9599572329864
 20
156.9109392487867
 30
0.0
 10
123.8064781278692
 20
156.3919352715498
 30
0.0
 10
123.7184558801533
 20
156.0942788252619
 30
0.0
 10
123.6497261798819
 20
155.7840477721575
 30
0.0
 10
123.5958103999698
 20
155.463825935555
 30
0.0
 10
123.5560195208654
 20
155.465376229546
 30
0.0
 10
123.5251858959316
 20
155.4753670130441
 30
0.0
 10
123.5000366822985
 20
155.4862190709817
 30
0.0
 10
123.2904024837265
 20
155.5763083773524
 30
0.0
 10
123.0788734813877
 20
155.9656044240021
 30
0.0
 10
122.9486487861367
 20
156.4992500667103
 30
0.0
 10
122.9427921199482
 20
156.5240547705677
 30
0.0
 10
122.9343516304412
 20
156.5466201608823
 30
0.0
 10
122.9248776116068
 20
156.5678075120938
 30
0.0
 10
122.9252221213826
 20
156.5702190805243
 30
0.0
 10
122.9255666311584
 20
156.5733196685065
 30
0.0
 10
122.9259111409342
 20
156.5752144722734
 30
0.0
 10
122.9367631988718
 20
156.7106068141613
 30
0.0
 10
122.904207025059
 20
156.8101701393664
 30
0.0
 10
122.8287593841597
 20
156.8739044478887
 30
0.0
 10
122.7531394883724
 20
156.9383277759626
 30
0.0
 10
122.6685623384144
 20
156.9684723813447
 30
0.0
 10
122.5752001891737
 20
156.9650272835867
 30
0.0
 10
122.4826993143724
 20
156.9617544407167
 30
0.0
 10
122.3926100080017
 20
156.9250641495944
 30
0.0
 10
122.3056212896132
 20
156.8544396455562
 30
0.0
 10
122.2184603163368
 20
156.7843319061817
 30
0.0
 10
122.1753965943622
 20
156.6818402478823
 30
0.0
 10
122.175741104138
 20
156.5455866315549
 30
0.0
 10
122.175741104138
 20
156.3964138986352
 30
0.0
 10
122.1531757138234
 20
156.1309691163842
 30
0.0
 10
122.1073559136425
 20
155.7501135592416
 30
0.0
 10
122.0611916036858
 20
155.3687412374352
 30
0.0
 10
122.0010746478094
 20
154.9799619554492
 30
0.0
 10
121.9254547520221
 20
154.5839479681715
 30
0.0
 10
121.8501793660107
 20
154.1881062357817
 30
0.0
 10
121.7625016280705
 20
153.8360172449181
 30
0.0
 10
121.6631105577533
 20
153.5280255053563
 30
0.0
 10
121.563891742324
 20
153.2207227853461
 30
0.0
 10
121.460883319361
 20
153.0662101509015
 30
0.0
 10
121.3552910730795
 20
153.0655211313499
 30
0.0
 10
121.2608953945113
 20
153.0655211313499
 30
0.0
 10
121.1671887354947
 20
153.1941955326098
 30
0.0
 10
121.0733098215903
 20
153.4536113937843
 30
0.0
 10
120.97908639791
 20
153.7130272549588
 30
0.0
 10
120.906394835217
 20
154.0373832088709
 30
0.0
 10
120.8542016041839
 20
154.4256457261932
 30
0.0
 10
120.8021806280387
 20
154.8142527532913
 30
0.0
 10
120.772897297096
 20
155.228870268462
 30
0.0
 10
120.767901905347
 20
155.6705318010326
 30
0.0
 10
120.76273425871
 20
156.1120210787154
 30
0.0
 10
120.806831510012
 20
156.5226767314645
 30
0.0
 10
120.9003659141406
 20
156.9024987592798
 30
0.0
 10
120.9237925788948
 20
157.0246274747995
 30
0.0
 10
120.8657426816731
 20
157.1097213894211
 30
0.0
 10
120.7262162224757
 20
157.1593307971358
 30
0.0
 10
120.5865175083903
 20
157.2087679499625
 30
0.0
 10
120.4299378152909
 20
157.2220315763307
 30
0.0
 10
120.2556158687381
 20
157.1992939311282
 30
0.0
 10
120.0809494124094
 20
157.1769007957014
 30
0.0
 10
119.9152402102515
 20
157.1079988405422
 30
0.0
 10
119.7579714976005
 20
156.993277085202
 30
0.0
 10
119.6008750398375
 20
156.8780385651982
 30
0.0
 10
119.5157811252158
 20
156.7078507359549
 30
0.0
 10
119.5032065183993
 20
156.4794407546021
 30
0.0
 10
119.4572144633305
 20
156.0834267673244
 30
0.0
 10
119.4367161316706
 20
155.6822451334097
 30
0.0
 10
119.441022503868
 20
155.2757235979703
 30
0.0
 10
119.4120836827012
 20
155.1403312560823
 30
0.0
 10
119.3662638825203
 20
154.9675596035206
 30
0.0
 10
119.3028740837738
 20
154.7579254049486
 30
0.0
 10
119.2198472278069
 20
154.4826620940875
 30
0.0
 10
119.1309637056515
 20
154.2091213321053
 30
0.0
 10
119.0363957721954
 20
153.93747537389
 30
0.0
 10
118.9413110740757
 20
153.6666906901142
 30
0.0
 10
118.8438148075254
 20
153.433802081676
 30
0.0
 10
118.7437347176566
 20
153.2405320974544
 30
0.0
 10
118.6431378631241
 20
153.0464008387932
 30
0.0
 10
118.5578716936146
 20
152.9564837873104
 30
0.0
 10
118.4886252286795
 20
152.9669913354722
 30
0.0
 10
118.3835497470617
 20
152.9830110400467
 30
0.0
 10
118.3172316152209
 20
153.1128912255219
 30
0.0
 10
118.2898430880451
 20
153.3554261076824
 30
0.0
 10
118.2624545608694
 20
153.597788734955
 30
0.0
 10
118.2557366202413
 20
153.8826983195384
 30
0.0
 10
118.2695170112732
 20
154.2118774103117
 30
0.0
 10
118.2831251474171
 20
154.5400229717575
 30
0.0
 10
118.3115472039203
 20
154.8800541204683
 30
0.0
 10
118.3546109258948
 20
155.2330043857715
 30
0.0
 10
118.3973301380936
 20
155.5849211217473
 30
0.0
 10
118.4431499382744
 20
155.8787879605014
 30
0.0
 10
118.4908645422222
 20
156.1137436275944
 30
0.0
 10
118.5272103235687
 20
156.322344296839
 30
0.0
 10
118.4815627782757
 20
156.5056234975626
 30
0.0
 10
118.3554722003343
 20
156.6627199553256
 30
0.0
 10
118.2288648577292
 20
156.8196441582008
 30
0.0
 10
118.0795198699216
 20
156.9188629736301
 30
0.0
 10
117.9062314526961
 20
156.9617544407167
 30
0.0
 10
117.7334598001343
 20
157.0048181626912
 30
0.0
 10
117.5742962837165
 20
156.9758793415243
 30
0.0
 10
117.4299466876579
 20
156.8761437614313
 30
0.0
 10
117.2850803269356
 20
156.7757191617868
 30
0.0
 10
117.2115274898031
 20
156.5729751587307
 30
0.0
 10
117.2092881762605
 20
156.2642943996173
 30
0.0
 10
117.2080823920452
 20
156.0749862778173
 30
0.0
 10
117.2027424905203
 20
155.8836110973626
 30
0.0
 10
117.1951632754528
 20
155.6922359169078
 30
0.0
 10
117.1929239619101
 20
155.6837954274008
 30
0.0
 10
117.189823373928
 20
155.676732976997
 30
0.0
 10
117.1877563152732
 20
155.6677757228263
 30
0.0
 10
117.1522718083662
 20
155.5699349465002
 30
0.0
 10
117.0819918141038
 20
155.3587504539371
 30
0.0
 10
116.9760550580465
 20
155.0383563624467
 30
0.0
 10
116.870290556877
 20
154.7188235453957
 30
0.0
 10
116.7560855662006
 20
154.3939508268199
 30
0.0
 10
116.6334400860172
 20
154.0682168338047
 30
0.0
 10
116.5107946058337
 20
153.7412770565741
 30
0.0
 10
116.3891826549777
 20
153.4577455110939
 30
0.0
 10
116.2679152138974
 20
153.2169331778123
 30
0.0
 10
116.1466477728172
 20
152.9756040798671
 30
0.0
 10
116.0527688589127
 20
152.8698395786977
 30
0.0
 10
115.9850726879688
 20
152.891199184797
 30
0.0
 10
115.8719012266197
 20
152.9280617308073
 30
0.0
 10
115.797142605272
 20
153.1171975977194
 30
0.0
 10
115.759935549486
 20
153.4543004133359
 30
0.0
 10
115.7222117290363
 20
153.7924367582798
 30
0.0
 10
115.7079145733408
 20
154.2135999591906
 30
0.0
 10
115.7165273177357
 20
154.720029329611
 30
0.0
 10
115.7251400621306
 20
155.2269754646951
 30
0.0
 10
115.748049962221
 20
155.7762963022021
 30
0.0
 10
115.7859460375586
 20
156.3709201752263
 30
0.0
 10
115.8236698580083
 20
156.9665775775779
 30
0.0
 10
115.8667335799828
 20
157.5408753738301
 30
0.0
 10
115.9161707328095
 20
158.0972586617409
 30
0.0
 10
115.9649188660847
 20
158.6524361654364
 30
0.0
 10
116.0171120971178
 20
159.1459464192644
 30
0.0
 10
116.0717168965815
 20
159.5771004036733
 30
0.0
 10
116.1259771862694
 20
160.0079098783064
 30
0.0
 10
116.1650790458223
 20
160.2991928937421
 30
0.0
 10
116.1893669850159
 20
160.4481933717739
 30
0.0
 10
116.2251960016987
 20
160.6466310026325
 30
0.0
 10
116.177309142863
 20
160.8102731461357
 30
0.0
 10
116.0460509182847
 20
160.9360192143013
 30
0.0
 10
115.9146204388185
 20
161.061593027579
 30
0.0
 10
115.759935549486
 20
161.1299782180745
 30
0.0
 10
115.5818239953994
 20
161.1435863542185
 30
0.0
 10
115.4033679315369
 20
161.1566777256987
 30
0.0
 10
115.2397257880338
 20
161.1065515533204
 30
0.0
 10
115.0900362904503
 20
160.9959639152898
 30
0.0
 10
114.940174537979
 20
160.8843427479319
 30
0.0
 10
114.8652436617433
 20
160.6893502148313
 30
0.0
 10
114.8643823873038
 20
160.4070244535663
 30
0.0
 10
114.8636933677522
 20
160.1477808472796
 30
0.0
 10
114.8394054285586
 20
159.7683033292402
 30
0.0
 10
114.7932411186019
 20
159.2746208205243
 30
0.0
 10
114.7463877890936
 20
158.7793880178173
 30
0.0
 10
114.7000512242491
 20
158.2364406111625
 30
0.0
 10
114.6542314240682
 20
157.6438837967931
 30
0.0
 10
114.6080671141115
 20
157.0516714921995
 30
0.0
 10
114.576716724514
 20
156.4472290905651
 30
0.0
 10
114.5593189808363
 20
155.8257334550288
 30
0.0
 10
114.5420934920465
 20
155.2040655646046
 30
0.0
 10
114.5612137846032
 20
154.6302845330161
 30
0.0
 10
114.6154740742911
 20
154.0975001647473
 30
0.0
 10
114.6699066188669
 20
153.5643712867028
 30
0.0
 10
114.7706757282873
 20
153.0985940698264
 30
0.0
 10
114.9184704221038
 20
152.6975846907996
 30
0.0
 10
115.0666096256962
 20
152.2976088411003
 30
0.0
 10
115.2889906859726
 20
152.025962882885
 30
0.0
 10
115.5907812495701
 20
151.9057289711321
 30
0.0
 10
115.9146204388185
 20
151.7772268247601
 30
0.0
 10
116.1981519842987
 20
151.8368270159729
 30
0.0
 10
116.4394810822439
 20
152.0900417011831
 30
0.0
 10
116.6802934155254
 20
152.3425673668416
 30
0.0
 10
116.8894108494337
 20
152.6753638102608
 30
0.0
 10
117.0649385802019
 20
153.0844691690187
 30
0.0
 10
117.1085190668401
 20
153.1862718077665
 30
0.0
 10
117.1503770045993
 20
153.2892802307295
 30
0.0
 10
117.1903401385917
 20
153.3929776732442
 30
0.0
 10
117.2289252334809
 20
153.1817931806811
 30
0.0
 10
117.2852525818235
 20
152.9805994716162
 30
0.0
 10
117.3650065949203
 20
152.7924971340315
 30
0.0
 10
117.4950590352834
 20
152.4845053944697
 30
0.0
 10
117.7158898015687
 20
152.2416260025334
 30
0.0
 10
118.0285324231038
 20
152.0741942514964
 30
0.0
 10
118.2367885825725
 20
151.9673962209996
 30
0.0
 10
118.4293695472426
 20
151.9598170059321
 30
0.0
 10
118.6052417877865
 20
152.0518011160697
 30
0.0
 10
118.7807695185547
 20
152.1430962066557
 30
0.0
 10
118.9423446034031
 20
152.2914076651359
 30
0.0
 10
119.0901392972197
 20
152.4939794133041
 30
0.0
 10
119.2374172263725
 20
152.6979292005754
 30
0.0
 10
119.3672974118477
 20
152.9389137887448
 30
0.0
 10
119.479952108533
 20
153.2184834718034
 30
0.0
 10
119.5326621042298
 20
153.3495694414939
 30
0.0
 10
119.5817547472808
 20
153.4787606074174
 30
0.0
 10
119.6277468023496
 20
153.606229224462
 30
0.0
 10
119.6429052324846
 20
153.5421504061639
 30
0.0
 10
119.6568578784043
 20
153.4766935487627
 30
0.0
 10
119.6739111123063
 20
153.4143372793435
 30
0.0
 10
119.7955230631623
 20
152.9730202565486
 30
0.0
 10
119.966744421733
 20
152.6109404821869
 30
0.0
 10
120.1894699917852
 20
152.3334378577831
 30
0.0
 10
120.4121955618374
 20
152.0552462138276
 30
0.0
 10
120.6890091666897
 20
151.9219209305945
 30
0.0
 10
121.0193940416782
 20
151.9456921051245
 30
0.0
 10
121.2784653930769
 20
151.9546493592952
 30
0.0
 10
121.5060140999903
 20
152.0666150364289
 30
0.0
 10
121.6999731037635
 20
152.2750434507856
 30
0.0
 10
121.8941043624247
 20
152.4838163749181
 30
0.0
 10
122.0611916036858
 20
152.7487443925053
 30
0.0
 10
122.2015793373227
 20
153.0674159351168
 30
0.0
 10
122.341450306296
 20
153.3860874777283
 30
0.0
 10
122.4573778458514
 20
153.7319752926276
 30
0.0
 10
122.5503954853164
 20
154.1026678113843
 30
0.0
 10
122.6401402819113
 20
154.4630250368671
 30
0.0
 10
122.7097312566221
 20
154.8087405968785
 30
0.0
 10
122.7608909583278
 20
155.1410202756339
 30
0.0
 10
122.8866370264934
 20
154.9679041132964
 30
0.0
 10
123.0385658376195
 20
154.8235545172378
 30
0.0
 10
123.2216727834552
 20
154.743628249253
 30
0.0
 10
123.2972926792425
 20
154.7107275656645
 30
0.0
 10
123.3906548284832
 20
154.6848893324798
 30
0.0
 10
123.4984863883074
 20
154.677826882076
 30
0.0
 10
123.4545613918934
 20
154.1112805557792
 30
0.0
 10
123.4733371746743
 20
153.5840083439232
 30
0.0
 10
123.5548137366501
 20
153.1010056382569
 30
0.0
 10
123.6393908866081
 20
152.602327737792
 30
0.0
 10
123.7994156774654
 20
152.2020073783168
 30
0.0
 10
124.03506036411
 20
151.9095185786659
 30
0.0
 10
124.2701882860908
 20
151.6173742887907
 30
0.0
 10
124.5976448279851
 20
151.5157439049308
 30
0.0
 10
125.0129513627074
 20
151.6166852692391
 30
0.0
 10
125.3595281971583
 20
151.7010901643092
 30
0.0
 10
125.6709650344781
 20
151.8730005424315
 30
0.0
 10
125.9489844235456
 20
152.1217366005563
 30
0.0
 10
126.2270038126131
 20
152.3704726586811
 30
0.0
 10
126.4716057534284
 20
152.6534874394977
 30
0.0
 10
126.6839960302067
 20
152.9644075121537
 30
0.0
 10
126.8962140520971
 20
153.2753275848098
 30
0.0
 10
127.077253939278
 20
153.5983054996187
 30
0.0
 10
127.2267711819736
 20
153.9316187077015
 30
0.0
 10
127.376460679557
 20
154.2647596608964
 30
0.0
 10
127.5035847868258
 20
154.5770577726556
 30
0.0
 10
127.6088325233315
 20
154.8709246114097
 30
0.0
 10
127.7140802598372
 20
155.1644469403881
 30
0.0
 10
127.7938342729341
 20
155.4202454489167
 30
0.0
 10
127.8494726017251
 20
155.64124847009
 30
0.0
 10
127.9047664207404
 20
155.8613902168237
 30
0.0
 10
127.9435237705175
 20
156.0091849106403
 30
0.0
 10
127.96626141572
 20
156.0848048064275
 30
0.0
 10
127.9884822962589
 20
156.1957369542339
 30
0.0
 10
127.9767689638818
 20
156.2761799868823
 30
0.0
 10
127.9321549479162
 20
156.3288899825791
 30
0.0
  0
SPLINE
  5
1B5
330
1AF
100
AcDbEntity
  8
Ebene 9
 62
   250
420
  2301728
370
     9
100
AcDbSpline
210
0.0
220
0.0
230
1.0
 70
    11
 71
     3
 72
    29
 73
    25
 74
     0
 42
0.0000000001
 43
0.0000000001
 40
0.0
 40
0.0
 40
0.0
 40
0.0
 40
1.0
 40
1.0
 40
1.0
 40
2.0
 40
2.0
 40
2.0
 40
3.0
 40
3.0
 40
3.0
 40
4.0
 40
4.0
 40
4.0
 40
5.0
 40
5.0
 40
5.0
 40
6.0
 40
6.0
 40
6.0
 40
7.0
 40
7.0
 40
7.0
 40
8.0
 40
8.0
 40
8.0
 40
8.0
 10
125.1304291962539
 20
156.8306684710263
 30
0.0
 10
125.2200017379609
 20
157.1329757992874
 30
0.0
 10
125.3049233976946
 20
157.3066087262887
 30
0.0
 10
125.3851941754551
 20
157.3538065655727
 30
0.0
 10
125.431013975636
 20
157.3849847002823
 30
0.0
 10
125.4742499524985
 20
157.3510504873664
 30
0.0
 10
125.5154188707061
 20
157.2538987305919
 30
0.0
 10
125.55607102425
 20
157.1557134444899
 30
0.0
 10
125.5856988649685
 20
157.0316899252033
 30
0.0
 10
125.6043023928615
 20
156.8807946434046
 30
0.0
 10
125.6229059207545
 20
156.7293825969422
 30
0.0
 10
125.6265232734004
 20
156.5800376091345
 30
0.0
 10
125.6160157252386
 20
156.4317261506543
 30
0.0
 10
125.6058526868526
 20
156.2827256726224
 30
0.0
 10
125.5779473950131
 20
156.1666258781791
 30
0.0
 10
125.5329888692717
 20
156.0827377477728
 30
0.0
 10
125.4763170111532
 20
155.9714610901906
 30
0.0
 10
125.3848496656793
 20
155.8892955086632
 30
0.0
 10
125.2587590877379
 20
155.8384803167333
 30
0.0
 10
125.1323240000208
 20
155.7876651248033
 30
0.0
 10
125.0055444025278
 20
155.7525251276721
 30
0.0
 10
124.8789370599227
 20
155.7352996388823
 30
0.0
 10
124.9566240143647
 20
156.163525290197
 30
0.0
 10
125.0399953801074
 20
156.5283611427651
 30
0.0
 10
125.1304291962539
 20
156.8306684710263
 30
0.0
  0
ENDBLK
  5
1B2
330
1AF
100
AcDbEntity
  8
0
100
AcDbBlockEnd
  0
BLOCK
  5
1BB
330
1B9
100
AcDbEntity
  8
0
100
AcDbBlockBegin
  2
block 7
 70
     0
 71
     0
 10
0.0
 20
0.0
 30
0.0
  3
block 7
  1

  0
POLYLINE
  5
1BD
330
1B9
100
AcDbEntity
  8
Ebene 9
 62
   250
420
  2301728
370
     9
100
AcDb2dPolyline
 66
     1
 10
0.0
 20
0.0
 30
0.0
  0
VERTEX
  5
1BE
330
1BD
100
AcDbEntity
  8
Ebene 9
 62
   250
420
  2301728
370
     9
100
AcDbVertex
100
AcDb2dVertex
 10
94.70056971972987
 20
190.600722478782
 30
0.0
  0
VERTEX
  5
1BF
330
1BD
100
AcDbEntity
  8
Ebene 9
 62
   250
420
  2301728
370
     9
100
AcDbVertex
100
AcDb2dVertex
 10
99.70078460563546
 20
190.600722478782
 30
0.0
  0
SEQEND
  5
1C0
330
1BD
100
AcDbEntity
  8
Ebene 9
370
     9
  0
POLYLINE
  5
1C1
330
1B9
100
AcDbEntity
  8
Ebene 9
 62
   250
420
  2301728
370
     9
100
AcDb2dPolyline
 66
     1
 10
0.0
 20
0.0
 30
0.0
  0
VERTEX
  5
1C2
330
1C1
100
AcDbEntity
  8
Ebene 9
 62
   250
420
  2301728
370
     9
100
AcDbVertex
100
AcDb2dVertex
 10
94.70056971972987
 20
114.4006722290822
 30
0.0
  0
VERTEX
  5
1C3
330
1C1
100
AcDbEntity
  8
Ebene 9
 62
   250
420
  2301728
370
     9
100
AcDbVertex
100
AcDb2dVertex
 10
99.70078460563546
 20
114.4006722290822
 30
0.0
  0
SEQEND
  5
1C4
330
1C1
100
AcDbEntity
  8
Ebene 9
370
     9
  0
POLYLINE
  5
1C5
330
1B9
100
AcDbEntity
  8
Ebene 9
 62
   250
420
  2301728
370
     9
100
AcDb2dPolyline
 66
     1
 10
0.0
 20
0.0
 30
0.0
  0
VERTEX
  5
1C6
330
1C5
100
AcDbEntity
  8
Ebene 9
 62
   250
420
  2301728
370
     9
100
AcDbVertex
100
AcDb2dVertex
 10
205.3006101022287
 20
190.600722478782
 30
0.0
  0
VERTEX
  5
1C7
330
1C5
100
AcDbEntity
  8
Ebene 9
 62
   250
420
  2301728
370
     9
100
AcDbVertex
100
AcDb2dVertex
 10
210.3008249881343
 20
190.600722478782
 30
0.0
  0
SEQEND
  5
1C8
330
1C5
100
AcDbEntity
  8
Ebene 9
370
     9
  0
POLYLINE
  5
1C9
330
1B9
100
AcDbEntity
  8
Ebene 9
 62
   250
420
  2301728
370
     9
100
AcDb2dPolyline
 66
     1
 10
0.0
 20
0.0
 30
0.0
  0
VERTEX
  5
1CA
330
1C9
100
AcDbEntity
  8
Ebene 9
 62
   250
420
  2301728
370
     9
100
AcDbVertex
100
AcDb2dVertex
 10
205.3006101022287
 20
114.4006722290822
 30
0.0
  0
VERTEX
  5
1CB
330
1C9
100
AcDbEntity
  8
Ebene 9
 62
   250
420
  2301728
370
     9
100
AcDbVertex
100
AcDb2dVertex
 10
210.3008249881343
 20
114.4006722290822
 30
0.0
  0
SEQEND
  5
1CC
330
1C9
100
AcDbEntity
  8
Ebene 9
370
     9
  0
POLYLINE
  5
1CD
330
1B9
100
AcDbEntity
  8
Ebene 9
 62
   250
420
  2301728
370
     9
100
AcDb2dPolyline
 66
     1
 10
0.0
 20
0.0
 30
0.0
  0
VERTEX
  5
1CE
330
1CD
100
AcDbEntity
  8
Ebene 9
 62
   250
420
  2301728
370
     9
100
AcDbVertex
100
AcDb2dVertex
 10
203.300730853732
 20
192.6007739821667
 30
0.0
  0
VERTEX
  5
1CF
330
1CD
100
AcDbEntity
  8
Ebene 9
 62
   250
420
  2301728
370
     9
100
AcDbVertex
100
AcDb2dVertex
 10
203.300730853732
 20
197.6009888680722
 30
0.0
  0
SEQEND
  5
1D0
330
1CD
100
AcDbEntity
  8
Ebene 9
370
     9
  0
POLYLINE
  5
1D1
330
1B9
100
AcDbEntity
  8
Ebene 9
 62
   250
420
  2301728
370
     9
100
AcDb2dPolyline
 66
     1
 10
0.0
 20
0.0
 30
0.0
  0
VERTEX
  5
1D2
330
1D1
100
AcDbEntity
  8
Ebene 9
 62
   250
420
  2301728
370
     9
100
AcDbVertex
100
AcDb2dVertex
 10
101.7006638541322
 20
192.6007739821667
 30
0.0
  0
VERTEX
  5
1D3
330
1D1
100
AcDbEntity
  8
Ebene 9
 62
   250
420
  2301728
370
     9
100
AcDbVertex
100
AcDb2dVertex
 10
101.7006638541322
 20
197.6009888680722
 30
0.0
  0
SEQEND
  5
1D4
330
1D1
100
AcDbEntity
  8
Ebene 9
370
     9
  0
POLYLINE
  5
1D5
330
1B9
100
AcDbEntity
  8
Ebene 9
 62
   250
420
  2301728
370
     9
100
AcDb2dPolyline
 66
     1
 10
0.0
 20
0.0
 30
0.0
  0
VERTEX
  5
1D6
330
1D5
100
AcDbEntity
  8
Ebene 9
 62
   250
420
  2301728
370
     9
100
AcDbVertex
100
AcDb2dVertex
 10
203.300730853732
 20
107.400233584904
 30
0.0
  0
VERTEX
  5
1D7
330
1D5
100
AcDbEntity
  8
Ebene 9
 62
   250
420
  2301728
370
     9
100
AcDbVertex
100
AcDb2dVertex
 10
203.300730853732
 20
112.4004484708096
 30
0.0
  0
SEQEND
  5
1D8
330
1D5
100
AcDbEntity
  8
Ebene 9
370
     9
  0
POLYLINE
  5
1D9
330
1B9
100
AcDbEntity
  8
Ebene 9
 62
   250
420
  2301728
370
     9
100
AcDb2dPolyline
 66
     1
 10
0.0
 20
0.0
 30
0.0
  0
VERTEX
  5
1DA
330
1D9
100
AcDbEntity
  8
Ebene 9
 62
   250
420
  2301728
370
     9
100
AcDbVertex
100
AcDb2dVertex
 10
101.7006638541322
 20
107.400233584904
 30
0.0
  0
VERTEX
  5
1DB
330
1D9
100
AcDbEntity
  8
Ebene 9
 62
   250
420
  2301728
370
     9
100
AcDbVertex
100
AcDb2dVertex
 10
101.7006638541322
 20
112.4004484708096
 30
0.0
  0
SEQEND
  5
1DC
330
1D9
100
AcDbEntity
  8
Ebene 9
370
     9
  0
ENDBLK
  5
1BC
330
1B9
100
AcDbEntity
  8
0
100
AcDbBlockEnd
  0
ENDSEC
  0
SECTION
  2
ENTITIES
  0
INSERT
  5
3D
330
1F
100
AcDbEntity
  8
Ebene 9
100
AcDbBlockReference
  2
block 2
 10
0.0
 20
0.0
 30
0.0
  0
INSERT
  5
1BA
330
1F
100
AcDbEntity
  8
Ebene 9
100
AcDbBlockReference
  2
block 7
 10
0.0
 20
0.0
 30
0.0
  0
ENDSEC
  0
SECTION
  2
OBJECTS
  0
DICTIONARY
  5
C
330
0
100
AcDbDictionary
281
     1
  3
ACAD_GROUP
350
D
  3
ACAD_LAYOUT
350
1A
  3
ACAD_MLINESTYLE
350
17
  3
ACAD_PLOTSETTINGS
350
19
  3
ACAD_PLOTSTYLENAME
350
E
  3
ACAD_TABLESTYLE
350
1DD
  3
ACAD_VISUALSTYLE
350
2A
  0
DICTIONARY
  5
D
102
{ACAD_REACTORS
330
C
102
}
330
C
100
AcDbDictionary
281
     1
  0
DICTIONARY
  5
1A
102
{ACAD_REACTORS
330
C
102
}
330
C
100
AcDbDictionary
281
     1
  3
Layout1
350
1E
  3
Layout2
350
26
  3
Model
350
22
  0
DICTIONARY
  5
17
102
{ACAD_REACTORS
330
C
102
}
330
C
100
AcDbDictionary
281
     1
  3
Standard
350
18
  0
DICTIONARY
  5
19
102
{ACAD_REACTORS
330
C
102
}
330
C
100
AcDbDictionary
281
     1
  0
ACDBDICTIONARYWDFLT
  5
E
102
{ACAD_REACTORS
330
C
102
}
330
C
100
AcDbDictionary
281
     1
  3
Normal
350
F
100
AcDbDictionaryWithDefault
340
F
  0
DICTIONARY
  5
1DD
102
{ACAD_REACTORS
330
C
102
}
330
C
100
AcDbDictionary
281
     1
  0
DICTIONARY
  5
2A
102
{ACAD_REACTORS
330
C
102
}
330
C
100
AcDbDictionary
281
     1
  3
2dWireframe
350
2F
  3
3D Hidden
350
31
  3
3dWireframe
350
30
  3
Basic
350
32
  3
Brighten
350
36
  3
ColorChange
350
3A
  3
Conceptual
350
34
  3
Dim
350
35
  3
Facepattern
350
39
  3
Flat
350
2B
  3
FlatWithEdges
350
2C
  3
Gouraud
350
2D
  3
GouraudWithEdges
350
2E
  3
Linepattern
350
38
  3
Realistic
350
33
  3
Thicken
350
37
  0
LAYOUT
  5
1E
102
{ACAD_REACTORS
330
1A
102
}
330
1A
100
AcDbPlotSettings
  1

  2
none_device
  4

  6

 40
0.0
 41
0.0
 42
0.0
 43
0.0
 44
0.0
 45
0.0
 46
0.0
 47
0.0
 48
0.0
 49
0.0
140
0.0
141
0.0
142
1.0
143
1.0
 70
   688
 72
     0
 73
     0
 74
     5
  7

 75
    16
 76
     0
 77
     2
 78
   300
147
1.0
148
0.0
149
0.0
100
AcDbLayout
  1
Layout1
 70
     1
 71
     1
 10
0.0
 20
0.0
 11
12.0
 21
9.0
 12
0.0
 22
0.0
 32
0.0
 14
1.000000000000000E+20
 24
1.000000000000000E+20
 34
1.000000000000000E+20
 15
-1.000000000000000E+20
 25
-1.000000000000000E+20
 35
-1.000000000000000E+20
146
0.0
 13
0.0
 23
0.0
 33
0.0
 16
1.0
 26
0.0
 36
0.0
 17
0.0
 27
1.0
 37
0.0
 76
     0
330
1B
  0
LAYOUT
  5
26
102
{ACAD_REACTORS
330
1A
102
}
330
1A
100
AcDbPlotSettings
  1

  2
none_device
  4

  6

 40
0.0
 41
0.0
 42
0.0
 43
0.0
 44
0.0
 45
0.0
 46
0.0
 47
0.0
 48
0.0
 49
0.0
140
0.0
141
0.0
142
1.0
143
1.0
 70
   688
 72
     0
 73
     0
 74
     5
  7

 75
    16
 76
     0
 77
     2
 78
   300
147
1.0
148
0.0
149
0.0
100
AcDbLayout
  1
Layout2
 70
     1
 71
     2
 10
0.0
 20
0.0
 11
0.0
 21
0.0
 12
0.0
 22
0.0
 32
0.0
 14
0.0
 24
0.0
 34
0.0
 15
0.0
 25
0.0
 35
0.0
146
0.0
 13
0.0
 23
0.0
 33
0.0
 16
1.0
 26
0.0
 36
0.0
 17
0.0
 27
1.0
 37
0.0
 76
     0
330
23
  0
LAYOUT
  5
22
102
{ACAD_REACTORS
330
1A
102
}
330
1A
100
AcDbPlotSettings
  1

  2
none_device
  4

  6

 40
0.0
 41
0.0
 42
0.0
 43
0.0
 44
0.0
 45
0.0
 46
0.0
 47
0.0
 48
0.0
 49
0.0
140
0.0
141
0.0
142
1.0
143
1.0
 70
  1712
 72
     0
 73
     0
 74
     0
  7

 75
     0
 76
     0
 77
     2
 78
   300
147
1.0
148
0.0
149
0.0
100
AcDbLayout
  1
Model
 70
     1
 71
     0
 10
0.0
 20
0.0
 11
12.0
 21
9.0
 12
0.0
 22
0.0
 32
0.0
 14
1.000000000000000E+20
 24
1.000000000000000E+20
 34
1.000000000000000E+20
 15
-1.000000000000000E+20
 25
-1.000000000000000E+20
 35
-1.000000000000000E+20
146
0.0
 13
0.0
 23
0.0
 33
0.0
 16
1.0
 26
0.0
 36
0.0
 17
0.0
 27
1.0
 37
0.0
 76
     0
330
1F
331
29
  0
MLINESTYLE
  5
18
102
{ACAD_REACTORS
330
17
102
}
330
17
100
AcDbMlineStyle
  2
Standard
 70
     0
  3

 62
   256
 51
90.0
 52
90.0
 71
     2
 49
0.5
 62
   256
  6
BYLAYER
 49
-0.5
 62
   256
  6
BYLAYER
  0
ACDBPLACEHOLDER
  5
F
102
{ACAD_REACTORS
330
E
102
}
330
E
  0
VISUALSTYLE
  5
2F
102
{ACAD_REACTORS
330
2A
102
}
330
2A
100
AcDbVisualStyle
  2
2dWireframe
 70
     4
 71
     0
 72
     2
 73
     0
 90
        0
 40
-0.6
 41
-30.0
 62
     5
 63
     7
421
 16777215
 74
     1
 91
        4
 64
     7
 65
   257
 75
     1
175
     1
 42
1.0
 92
        0
 66
   257
 43
1.0
 76
     1
 77
     6
 78
     2
 67
     7
 79
     5
170
     0
171
     0
290
     0
174
     0
 93
        1
 44
0.0
173
     0
291
     0
 45
0.0
1001
ACAD
1000
AcDbSavedByObjectVersion
1070
     0
  0
VISUALSTYLE
  5
31
102
{ACAD_REACTORS
330
2A
102
}
330
2A
100
AcDbVisualStyle
  2
3D Hidden
 70
     6
 71
     1
 72
     2
 73
     2
 90
        0
 40
-0.6
 41
-30.0
 62
     5
 63
     7
421
 16777215
 74
     2
 91
        2
 64
     7
 65
   257
 75
     2
175
     1
 42
40.0
 92
        0
 66
   257
 43
1.0
 76
     1
 77
     6
 78
     2
 67
     7
 79
     3
170
     0
171
     0
290
     0
174
     0
 93
        1
 44
0.0
173
     0
291
     0
 45
0.0
1001
ACAD
1000
AcDbSavedByObjectVersion
1070
     0
  0
VISUALSTYLE
  5
30
102
{ACAD_REACTORS
330
2A
102
}
330
2A
100
AcDbVisualStyle
  2
3dWireframe
 70
     5
 71
     0
 72
     2
 73
     0
 90
        0
 40
-0.6
 41
-30.0
 62
     5
 63
     7
421
 16777215
 74
     1
 91
        4
 64
     7
 65
   257
 75
     1
175
     1
 42
1.0
 92
        0
 66
   257
 43
1.0
 76
     1
 77
     6
 78
     2
 67
     7
 79
     5
170
     0
171
     0
290
     0
174
     0
 93
        1
 44
0.0
173
     0
291
     0
 45
0.0
1001
ACAD
1000
AcDbSavedByObjectVersion
1070
     0
  0
VISUALSTYLE
  5
32
102
{ACAD_REACTORS
330
2A
102
}
330
2A
100
AcDbVisualStyle
  2
Basic
 70
     7
 71
     1
 72
     0
 73
     1
 90
        0
 40
-0.6
 41
-30.0
 62
     5
 63
     7
421
 16777215
 74
     0
 91
        4
 64
     7
 65
   257
 75
     1
175
     1
 42
1.0
 92
        8
 66
     7
 43
1.0
 76
     1
 77
     6
 78
     2
 67
     7
 79
     5
170
     0
171
     0
290
     0
174
     0
 93
        1
 44
0.0
173
     0
291
     1
 45
0.0
1001
ACAD
1000
AcDbSavedByObjectVersion
1070
     0
  0
VISUALSTYLE
  5
36
102
{ACAD_REACTORS
330
2A
102
}
330
2A
100
AcDbVisualStyle
  2
Brighten
 70
    12
 71
     2
 72
     2
 73
     0
 90
        0
 40
-0.6
 41
-30.0
 62
     5
 63
     7
421
 16777215
 74
     1
 91
        4
 64
     7
 65
   257
 75
     1
175
     1
 42
1.0
 92
        8
 66
     7
 43
1.0
 76
     1
 77
     6
 78
     2
 67
     7
 79
     5
170
     0
171
     0
290
     0
174
     0
 93
        1
 44
50.0
173
     0
291
     1
 45
0.0
1001
ACAD
1000
AcDbSavedByObjectVersion
1070
     0
  0
VISUALSTYLE
  5
3A
102
{ACAD_REACTORS
330
2A
102
}
330
2A
100
AcDbVisualStyle
  2
ColorChange
 70
    16
 71
     2
 72
     2
 73
     3
 90
        0
 40
-0.6
 41
-30.0
 62
     5
 63
     8
421
  8421504
 74
     1
 91
        4
 64
     7
 65
   257
 75
     1
175
     1
 42
1.0
 92
        8
 66
     8
424
  8421504
 43
1.0
 76
     1
 77
     6
 78
     2
 67
     7
 79
     5
170
     0
171
     0
290
     0
174
     0
 93
        1
 44
0.0
173
     0
291
     1
 45
0.0
1001
ACAD
1000
AcDbSavedByObjectVersion
1070
     0
  0
VISUALSTYLE
  5
34
102
{ACAD_REACTORS
330
2A
102
}
330
2A
100
AcDbVisualStyle
  2
Conceptual
 70
     9
 71
     3
 72
     2
 73
     0
 90
        0
 40
-0.6
 41
-30.0
 62
     5
 63
     7
421
 16777215
 74
     2
 91
        2
 64
     7
 65
   257
 75
     1
175
     1
 42
40.0
 92
        8
 66
     7
 43
1.0
 76
     1
 77
     6
 78
     2
 67
     7
 79
     3
170
     0
171
     0
290
     0
174
     0
 93
        1
 44
0.0
173
     0
291
     0
 45
0.0
1001
ACAD
1000
AcDbSavedByObjectVersion
1070
     0
  0
VISUALSTYLE
  5
35
102
{ACAD_REACTORS
330
2A
102
}
330
2A
100
AcDbVisualStyle
  2
Dim
 70
    11
 71
     2
 72
     2
 73
     0
 90
        0
 40
-0.6
 41
-30.0
 62
     5
 63
     7
421
 16777215
 74
     1
 91
        4
 64
     7
 65
   257
 75
     1
175
     1
 42
1.0
 92
        8
 66
     7
 43
1.0
 76
     1
 77
     6
 78
     2
 67
     7
 79
     5
170
     0
171
     0
290
     0
174
     0
 93
        1
 44
-50.0
173
     0
291
     1
 45
0.0
1001
ACAD
1000
AcDbSavedByObjectVersion
1070
     0
  0
VISUALSTYLE
  5
39
102
{ACAD_REACTORS
330
2A
102
}
330
2A
100
AcDbVisualStyle
  2
Facepattern
 70
    15
 71
     2
 72
     2
 73
     0
 90
        0
 40
-0.6
 41
-30.0
 62
     5
 63
     7
421
 16777215
 74
     1
 91
        4
 64
     7
 65
   257
 75
     1
175
     1
 42
1.0
 92
        8
 66
     7
 43
1.0
 76
     1
 77
     6
 78
     2
 67
     7
 79
     5
170
     0
171
     0
290
     0
174
     0
 93
        1
 44
0.0
173
     0
291
     1
 45
0.0
1001
ACAD
1000
AcDbSavedByObjectVersion
1070
     0
  0
VISUALSTYLE
  5
2B
102
{ACAD_REACTORS
330
2A
102
}
330
2A
100
AcDbVisualStyle
  2
Flat
 70
     0
 71
     2
 72
     1
 73
     1
 90
        2
 40
-0.6
 41
30.0
 62
     5
 63
     7
421
 16777215
 74
     0
 91
        4
 64
     7
 65
   257
 75
     1
175
     1
 42
1.0
 92
        8
 66
     7
 43
1.0
 76
     1
 77
     6
 78
     2
 67
     7
 79
     5
170
     0
171
     0
290
     0
174
     0
 93
       13
 44
0.0
173
     0
291
     1
 45
0.0
1001
ACAD
1000
AcDbSavedByObjectVersion
1070
     0
  0
VISUALSTYLE
  5
2C
102
{ACAD_REACTORS
330
2A
102
}
330
2A
100
AcDbVisualStyle
  2
FlatWithEdges
 70
     1
 71
     2
 72
     1
 73
     1
 90
        2
 40
-0.6
 41
30.0
 62
     5
 63
     7
421
 16777215
 74
     1
 91
        4
 64
     7
 65
   257
 75
     1
175
     1
 42
1.0
 92
        0
 66
   257
 43
1.0
 76
     1
 77
     6
 78
     2
 67
     7
 79
     5
170
     0
171
     0
290
     0
174
     0
 93
       13
 44
0.0
173
     0
291
     1
 45
0.0
1001
ACAD
1000
AcDbSavedByObjectVersion
1070
     0
  0
VISUALSTYLE
  5
2D
102
{ACAD_REACTORS
330
2A
102
}
330
2A
100
AcDbVisualStyle
  2
Gouraud
 70
     2
 71
     2
 72
     2
 73
     1
 90
        2
 40
-0.6
 41
30.0
 62
     5
 63
     7
421
 16777215
 74
     0
 91
        4
 64
     7
 65
   257
 75
     1
175
     1
 42
1.0
 92
        0
 66
     7
 43
1.0
 76
     1
 77
     6
 78
     2
 67
     7
 79
     5
170
     0
171
     0
290
     0
174
     0
 93
       13
 44
0.0
173
     0
291
     1
 45
0.0
1001
ACAD
1000
AcDbSavedByObjectVersion
1070
     0
  0
VISUALSTYLE
  5
2E
102
{ACAD_REACTORS
330
2A
102
}
330
2A
100
AcDbVisualStyle
  2
GouraudWithEdges
 70
     3
 71
     2
 72
     2
 73
     1
 90
        2
 40
-0.6
 41
30.0
 62
     5
 63
     7
421
 16777215
 74
     1
 91
        4
 64
     7
 65
   257
 75
     1
175
     1
 42
1.0
 92
        0
 66
   257
 43
1.0
 76
     1
 77
     6
 78
     2
 67
     7
 79
     5
170
     0
171
     0
290
     0
174
     0
 93
       13
 44
0.0
173
     0
291
     1
 45
0.0
1001
ACAD
1000
AcDbSavedByObjectVersion
1070
     0
  0
VISUALSTYLE
  5
38
102
{ACAD_REACTORS
330
2A
102
}
330
2A
100
AcDbVisualStyle
  2
Linepattern
 70
    14
 71
     2
 72
     2
 73
     0
 90
        0
 40
-0.6
 41
-30.0
 62
     5
 63
     7
421
 16777215
 74
     1
 91
        4
 64
     7
 65
   257
 75
     7
175
     7
 42
1.0
 92
        8
 66
     7
 43
1.0
 76
     1
 77
     6
 78
     2
 67
     7
 79
     5
170
     0
171
     0
290
     0
174
     0
 93
        1
 44
0.0
173
     0
291
     1
 45
0.0
1001
ACAD
1000
AcDbSavedByObjectVersion
1070
     0
  0
VISUALSTYLE
  5
33
102
{ACAD_REACTORS
330
2A
102
}
330
2A
100
AcDbVisualStyle
  2
Realistic
 70
     8
 71
     2
 72
     2
 73
     0
 90
        0
 40
-0.6
 41
-30.0
 62
     5
 63
     7
421
 16777215
 74
     1
 91
        0
 64
     7
 65
   257
 75
     1
175
     1
 42
1.0
 92
        8
 66
     8
424
  7895160
 43
1.0
 76
     1
 77
     6
 78
     2
 67
     7
 79
     5
170
     0
171
     0
290
     0
174
     0
 93
       13
 44
0.0
173
     0
291
     0
 45
0.0
1001
ACAD
1000
AcDbSavedByObjectVersion
1070
     0
  0
VISUALSTYLE
  5
37
102
{ACAD_REACTORS
330
2A
102
}
330
2A
100
AcDbVisualStyle
  2
Thicken
 70
    13
 71
     2
 72
     2
 73
     0
 90
        0
 40
-0.6
 41
-30.0
 62
     5
 63
     7
421
 16777215
 74
     1
 91
        4
 64
     7
 65
   257
 75
     1
175
     1
 42
1.0
 92
       12
 66
     7
 43
1.0
 76
     1
 77
     6
 78
     2
 67
     7
 79
     5
170
     0
171
     0
290
     0
174
     0
 93
        1
 44
0.0
173
     0
291
     1
 45
0.0
1001
ACAD
1000
AcDbSavedByObjectVersion
1070
     0
  0
ENDSEC
  0
EOF
