  0
SECTION
  2
HEADER
  9
$ACADVER
  1
AC1018
  9
$ACADMAINTVER
 70
     0
  9
$DWGCODEPAGE
  3
ASCII
  9
$INSBASE
 10
0.0
 20
0.0
 30
0.0
  9
$EXTMIN
 10
1.000000000000000E+20
 20
1.000000000000000E+20
 30
1.000000000000000E+20
  9
$EXTMAX
 10
-1.000000000000000E+20
 20
-1.000000000000000E+20
 30
-1.000000000000000E+20
  9
$LIMMIN
 10
0.0
 20
0.0
  9
$LIMMAX
 10
12.0
 20
9.0
  9
$ORTHOMODE
 70
     0
  9
$REGENMODE
 70
     1
  9
$FILLMODE
 70
     1
  9
$QTEXTMODE
 70
     0
  9
$MIRRTEXT
 70
     1
  9
$LTSCALE
 40
1.0
  9
$ATTMODE
 70
     1
  9
$TEXTSIZE
 40
0.2
  9
$TRACEWID
 40
0.05
  9
$TEXTSTYLE
  7
Standard
  9
$CLAYER
  8
0
  9
$CELTYPE
  6
ByLayer
  9
$CECOLOR
 62
   256
  9
$CELTSCALE
 40
1.0
  9
$DISPSILH
 70
     0
  9
$DIMSCALE
 40
1.0
  9
$DIMASZ
 40
0.18
  9
$DIMEXO
 40
0.0625
  9
$DIMDLI
 40
0.38
  9
$DIMRND
 40
0.0
  9
$DIMDLE
 40
0.0
  9
$DIMEXE
 40
0.18
  9
$DIMTP
 40
0.0
  9
$DIMTM
 40
0.0
  9
$DIMTXT
 40
0.18
  9
$DIMCEN
 40
0.09
  9
$DIMTSZ
 40
0.0
  9
$DIMTOL
 70
     0
  9
$DIMLIM
 70
     0
  9
$DIMTIH
 70
     1
  9
$DIMTOH
 70
     1
  9
$DIMSE1
 70
     0
  9
$DIMSE2
 70
     0
  9
$DIMTAD
 70
     0
  9
$DIMZIN
 70
     0
  9
$DIMBLK
  1

  9
$DIMASO
 70
     1
  9
$DIMSHO
 70
     1
  9
$DIMPOST
  1

  9
$DIMAPOST
  1

  9
$DIMALT
 70
     0
  9
$DIMALTD
 70
     2
  9
$DIMALTF
 40
25.4
  9
$DIMLFAC
 40
1.0
  9
$DIMTOFL
 70
     0
  9
$DIMTVP
 40
0.0
  9
$DIMTIX
 70
     0
  9
$DIMSOXD
 70
     0
  9
$DIMSAH
 70
     0
  9
$DIMBLK1
  1

  9
$DIMBLK2
  1

  9
$DIMSTYLE
  2
Standard
  9
$DIMCLRD
 70
     0
  9
$DIMCLRE
 70
     0
  9
$DIMCLRT
 70
     0
  9
$DIMTFAC
 40
1.0
  9
$DIMGAP
 40
0.09
  9
$DIMJUST
 70
     0
  9
$DIMSD1
 70
     0
  9
$DIMSD2
 70
     0
  9
$DIMTOLJ
 70
     1
  9
$DIMTZIN
 70
     0
  9
$DIMALTZ
 70
     0
  9
$DIMALTTZ
 70
     0
  9
$DIMUPT
 70
     0
  9
$DIMDEC
 70
     4
  9
$DIMTDEC
 70
     4
  9
$DIMALTU
 70
     2
  9
$DIMALTTD
 70
     2
  9
$DIMTXSTY
  7
Standard
  9
$DIMAUNIT
 70
     0
  9
$DIMADEC
 70
     0
  9
$DIMALTRND
 40
0.0
  9
$DIMAZIN
 70
     0
  9
$DIMDSEP
 70
    46
  9
$DIMATFIT
 70
     3
  9
$DIMFRAC
 70
     0
  9
$DIMLDRBLK
  1

  9
$DIMLUNIT
 70
     2
  9
$DIMLWD
 70
    -2
  9
$DIMLWE
 70
    -2
  9
$DIMTMOVE
 70
     0
  9
$LUNITS
 70
     2
  9
$LUPREC
 70
     4
  9
$SKETCHINC
 40
0.1
  9
$FILLETRAD
 40
0.5
  9
$AUNITS
 70
     0
  9
$AUPREC
 70
     0
  9
$MENU
  1
.
  9
$ELEVATION
 40
0.0
  9
$PELEVATION
 40
0.0
  9
$THICKNESS
 40
0.0
  9
$LIMCHECK
 70
     0
  9
$CHAMFERA
 40
0.5
  9
$CHAMFERB
 40
0.5
  9
$CHAMFERC
 40
1.0
  9
$CHAMFERD
 40
0.0
  9
$SKPOLY
 70
     0
  9
$TDCREATE
 40
2457041.760892477
  9
$TDUCREATE
 40
2457041.71922581
  9
$TDUPDATE
 40
2457041.760892489
  9
$TDUUPDATE
 40
2457041.719225822
  9
$TDINDWG
 40
0.0000000116
  9
$TDUSRTIMER
 40
0.0000000116
  9
$USRTIMER
 70
     1
  9
$ANGBASE
 50
0.0
  9
$ANGDIR
 70
     0
  9
$PDMODE
 70
     0
  9
$PDSIZE
 40
0.0
  9
$PLINEWID
 40
0.0
  9
$SPLFRAME
 70
     0
  9
$SPLINETYPE
 70
     6
  9
$SPLINESEGS
 70
     8
  9
$HANDSEED
  5
485
  9
$SURFTAB1
 70
     6
  9
$SURFTAB2
 70
     6
  9
$SURFTYPE
 70
     6
  9
$SURFU
 70
     6
  9
$SURFV
 70
     6
  9
$UCSBASE
  2

  9
$UCSNAME
  2

  9
$UCSORG
 10
0.0
 20
0.0
 30
0.0
  9
$UCSXDIR
 10
1.0
 20
0.0
 30
0.0
  9
$UCSYDIR
 10
0.0
 20
1.0
 30
0.0
  9
$UCSORTHOREF
  2

  9
$UCSORTHOVIEW
 70
     0
  9
$UCSORGTOP
 10
0.0
 20
0.0
 30
0.0
  9
$UCSORGBOTTOM
 10
0.0
 20
0.0
 30
0.0
  9
$UCSORGLEFT
 10
0.0
 20
0.0
 30
0.0
  9
$UCSORGRIGHT
 10
0.0
 20
0.0
 30
0.0
  9
$UCSORGFRONT
 10
0.0
 20
0.0
 30
0.0
  9
$UCSORGBACK
 10
0.0
 20
0.0
 30
0.0
  9
$PUCSBASE
  2

  9
$PUCSNAME
  2

  9
$PUCSORG
 10
0.0
 20
0.0
 30
0.0
  9
$PUCSXDIR
 10
1.0
 20
0.0
 30
0.0
  9
$PUCSYDIR
 10
0.0
 20
1.0
 30
0.0
  9
$PUCSORTHOREF
  2

  9
$PUCSORTHOVIEW
 70
     0
  9
$PUCSORGTOP
 10
0.0
 20
0.0
 30
0.0
  9
$PUCSORGBOTTOM
 10
0.0
 20
0.0
 30
0.0
  9
$PUCSORGLEFT
 10
0.0
 20
0.0
 30
0.0
  9
$PUCSORGRIGHT
 10
0.0
 20
0.0
 30
0.0
  9
$PUCSORGFRONT
 10
0.0
 20
0.0
 30
0.0
  9
$PUCSORGBACK
 10
0.0
 20
0.0
 30
0.0
  9
$USERI1
 70
     0
  9
$USERI2
 70
     0
  9
$USERI3
 70
     0
  9
$USERI4
 70
     0
  9
$USERI5
 70
     0
  9
$USERR1
 40
0.0
  9
$USERR2
 40
0.0
  9
$USERR3
 40
0.0
  9
$USERR4
 40
0.0
  9
$USERR5
 40
0.0
  9
$WORLDVIEW
 70
     1
  9
$SHADEDGE
 70
     3
  9
$SHADEDIF
 70
    70
  9
$TILEMODE
 70
     1
  9
$MAXACTVP
 70
    64
  9
$PINSBASE
 10
0.0
 20
0.0
 30
0.0
  9
$PLIMCHECK
 70
     0
  9
$PEXTMIN
 10
1.000000000000000E+20
 20
1.000000000000000E+20
 30
1.000000000000000E+20
  9
$PEXTMAX
 10
-1.000000000000000E+20
 20
-1.000000000000000E+20
 30
-1.000000000000000E+20
  9
$PLIMMIN
 10
0.0
 20
0.0
  9
$PLIMMAX
 10
12.0
 20
9.0
  9
$UNITMODE
 70
     0
  9
$VISRETAIN
 70
     1
  9
$PLINEGEN
 70
     0
  9
$PSLTSCALE
 70
     1
  9
$TREEDEPTH
 70
  3020
  9
$CMLSTYLE
  2
Standard
  9
$CMLJUST
 70
     0
  9
$CMLSCALE
 40
1.0
  9
$PROXYGRAPHICS
 70
     1
  9
$MEASUREMENT
 70
     0
  9
$CELWEIGHT
370
    -1
  9
$ENDCAPS
280
     0
  9
$JOINSTYLE
280
     0
  9
$LWDISPLAY
290
     1
  9
$INSUNITS
 70
     1
  9
$HYPERLINKBASE
  1

  9
$STYLESHEET
  1

  9
$XEDIT
290
     1
  9
$CEPSNTYPE
380
     0
  9
$PSTYLEMODE
290
     1
  9
$FINGERPRINTGUID
  2
{67415558-879B-4888-85CC-900CB4E81272}
  9
$VERSIONGUID
  2
{FAEB1C32-E019-11D5-929B-00C0DF256EC4}
  9
$EXTNAMES
290
     1
  9
$PSVPSCALE
 40
0.0
  9
$OLESTARTUP
290
     0
  9
$SORTENTS
280
   127
  9
$INDEXCTL
280
     0
  9
$HIDETEXT
280
     1
  9
$XCLIPFRAME
290
     0
  9
$HALOGAP
280
     0
  9
$OBSCOLOR
 70
   257
  9
$OBSLTYPE
280
     0
  9
$INTERSECTIONDISPLAY
280
     0
  9
$INTERSECTIONCOLOR
 70
   257
  9
$DIMASSOC
280
     2
  9
$PROJECTNAME
  1

  0
ENDSEC
  0
SECTION
  2
CLASSES
  0
CLASS
  1
ACDBDICTIONARYWDFLT
  2
AcDbDictionaryWithDefault
  3
ObjectDBX Classes
 90
        0
 91
        3
280
     0
281
     0
  0
CLASS
  1
VISUALSTYLE
  2
AcDbVisualStyle
  3
ObjectDBX Classes
 90
     4095
 91
        3
280
     0
281
     0
  0
ENDSEC
  0
SECTION
  2
TABLES
  0
TABLE
  2
VPORT
  5
8
330
0
100
AcDbSymbolTable
 70
     1
  0
VPORT
  5
29
330
8
100
AcDbSymbolTableRecord
100
AcDbViewportTableRecord
  2
*Active
 70
     0
 10
0.0
 20
0.0
 11
1.0
 21
1.0
 12
0.0
 22
0.0
 13
0.0
 23
0.0
 14
0.5
 24
0.5
 15
0.5
 25
0.5
 16
0.0
 26
0.0
 36
1.0
 17
105.0008952513716
 27
105.0008952513716
 37
0.0
 40
199.9999826918289
 41
1.0
 42
50.0
 43
0.0
 44
0.0
 50
0.0
 51
0.0
 71
     0
 72
   100
 73
     1
 74
     3
 75
     0
 76
     0
 77
     0
 78
     0
281
     0
 65
     1
110
0.0
120
0.0
130
0.0
111
1.0
121
0.0
131
0.0
112
0.0
122
1.0
132
0.0
 79
     0
146
0.0
  0
ENDTAB
  0
TABLE
  2
LTYPE
  5
5
330
0
100
AcDbSymbolTable
 70
     1
  0
LTYPE
  5
14
330
5
100
AcDbSymbolTableRecord
100
AcDbLinetypeTableRecord
  2
ByBlock
 70
     0
  3

 72
    65
 73
     0
 40
0.0
  0
LTYPE
  5
15
330
5
100
AcDbSymbolTableRecord
100
AcDbLinetypeTableRecord
  2
ByLayer
 70
     0
  3

 72
    65
 73
     0
 40
0.0
  0
LTYPE
  5
16
330
5
100
AcDbSymbolTableRecord
100
AcDbLinetypeTableRecord
  2
Continuous
 70
     0
  3
Solid line
 72
    65
 73
     0
 40
0.0
  0
ENDTAB
  0
TABLE
  2
LAYER
  5
2
330
0
100
AcDbSymbolTable
 70
     3
  0
LAYER
  5
10
330
2
100
AcDbSymbolTableRecord
100
AcDbLayerTableRecord
  2
0
 70
     0
 62
     7
  6
Continuous
370
    -3
390
F
  0
LAYER
  5
3B
330
2
100
AcDbSymbolTableRecord
100
AcDbLayerTableRecord
  2
Ebene 1
 70
     0
 62
     7
  6
Continuous
370
    -3
390
F
  0
LAYER
  5
18A
330
2
100
AcDbSymbolTableRecord
100
AcDbLayerTableRecord
  2
Ebene 2
 70
     1
 62
     7
  6
Continuous
370
    -3
390
F
  0
ENDTAB
  0
TABLE
  2
STYLE
  5
3
330
0
100
AcDbSymbolTable
 70
     1
  0
STYLE
  5
11
330
3
100
AcDbSymbolTableRecord
100
AcDbTextStyleTableRecord
  2
Standard
 70
     0
 40
0.0
 41
1.0
 50
0.0
 71
     0
 42
0.2
  3
txt
  4

  0
ENDTAB
  0
TABLE
  2
VIEW
  5
6
330
0
100
AcDbSymbolTable
 70
     0
  0
ENDTAB
  0
TABLE
  2
UCS
  5
7
330
0
100
AcDbSymbolTable
 70
     0
  0
ENDTAB
  0
TABLE
  2
APPID
  5
9
330
0
100
AcDbSymbolTable
 70
     1
  0
APPID
  5
12
330
9
100
AcDbSymbolTableRecord
100
AcDbRegAppTableRecord
  2
ACAD
 70
     0
  0
ENDTAB
  0
TABLE
  2
DIMSTYLE
  5
A
330
0
100
AcDbSymbolTable
 70
     1
100
AcDbDimStyleTable
  0
DIMSTYLE
105
27
330
A
100
AcDbSymbolTableRecord
100
AcDbDimStyleTableRecord
  2
Standard
 70
     0
340
11
  0
ENDTAB
  0
TABLE
  2
BLOCK_RECORD
  5
1
330
0
100
AcDbSymbolTable
 70
    11
  0
BLOCK_RECORD
  5
1F
330
1
100
AcDbSymbolTableRecord
100
AcDbBlockTableRecord
  2
*Model_Space
340
22
  0
BLOCK_RECORD
  5
1B
330
1
100
AcDbSymbolTableRecord
100
AcDbBlockTableRecord
  2
*Paper_Space
340
1E
  0
BLOCK_RECORD
  5
23
330
1
100
AcDbSymbolTableRecord
100
AcDbBlockTableRecord
  2
*Paper_Space0
340
26
  0
BLOCK_RECORD
  5
18B
330
1
100
AcDbSymbolTableRecord
100
AcDbBlockTableRecord
  2
block 2
340
0
102
{BLKREFS
331
18C
102
}
  0
BLOCK_RECORD
  5
1D7
330
1
100
AcDbSymbolTableRecord
100
AcDbBlockTableRecord
  2
block 3
340
0
102
{BLKREFS
331
1D8
102
}
  0
BLOCK_RECORD
  5
223
330
1
100
AcDbSymbolTableRecord
100
AcDbBlockTableRecord
  2
block 4
340
0
102
{BLKREFS
331
224
102
}
  0
BLOCK_RECORD
  5
26F
330
1
100
AcDbSymbolTableRecord
100
AcDbBlockTableRecord
  2
block 5
340
0
102
{BLKREFS
331
270
102
}
  0
BLOCK_RECORD
  5
2BB
330
1
100
AcDbSymbolTableRecord
100
AcDbBlockTableRecord
  2
block 6
340
0
102
{BLKREFS
331
2BC
102
}
  0
BLOCK_RECORD
  5
307
330
1
100
AcDbSymbolTableRecord
100
AcDbBlockTableRecord
  2
block 7
340
0
102
{BLKREFS
331
308
102
}
  0
BLOCK_RECORD
  5
353
330
1
100
AcDbSymbolTableRecord
100
AcDbBlockTableRecord
  2
block 8
340
0
102
{BLKREFS
331
354
102
}
  0
BLOCK_RECORD
  5
39F
330
1
100
AcDbSymbolTableRecord
100
AcDbBlockTableRecord
  2
block 9
340
0
102
{BLKREFS
331
3A0
102
}
  0
BLOCK_RECORD
  5
3EB
330
1
100
AcDbSymbolTableRecord
100
AcDbBlockTableRecord
  2
block 10
340
0
102
{BLKREFS
331
3EC
102
}
  0
BLOCK_RECORD
  5
437
330
1
100
AcDbSymbolTableRecord
100
AcDbBlockTableRecord
  2
block 11
340
0
102
{BLKREFS
331
438
102
}
  0
ENDTAB
  0
ENDSEC
  0
SECTION
  2
BLOCKS
  0
BLOCK
  5
20
330
1F
100
AcDbEntity
  8
0
100
AcDbBlockBegin
  2
*Model_Space
 70
     0
 71
     0
 10
0.0
 20
0.0
 30
0.0
  3
*Model_Space
  1

  0
ENDBLK
  5
21
330
1F
100
AcDbEntity
  8
0
100
AcDbBlockEnd
  0
BLOCK
  5
1C
330
1B
100
AcDbEntity
 67
     1
  8
0
100
AcDbBlockBegin
  2
*Paper_Space
 70
     0
 71
     0
 10
0.0
 20
0.0
 30
0.0
  3
*Paper_Space
  1

  0
ENDBLK
  5
1D
330
1B
100
AcDbEntity
 67
     1
  8
0
100
AcDbBlockEnd
  0
BLOCK
  5
24
330
23
100
AcDbEntity
  8
0
100
AcDbBlockBegin
  2
*Paper_Space0
 70
     0
 71
     0
 10
0.0
 20
0.0
 30
0.0
  3
*Paper_Space0
  1

  0
ENDBLK
  5
25
330
23
100
AcDbEntity
  8
0
100
AcDbBlockEnd
  0
BLOCK
  5
18D
330
18B
100
AcDbEntity
  8
0
100
AcDbBlockBegin
  2
block 2
 70
     0
 71
     0
 10
0.0
 20
0.0
 30
0.0
  3
block 2
  1

  0
POLYLINE
  5
18F
330
18B
100
AcDbEntity
  8
Ebene 2
 62
   250
420
  1709851
370
    13
100
AcDb2dPolyline
 66
     1
 10
0.0
 20
0.0
 30
0.0
  0
VERTEX
  5
190
330
18F
100
AcDbEntity
  8
Ebene 2
 62
   250
420
  1709851
370
    13
100
AcDbVertex
100
AcDb2dVertex
 10
351.6869479553304
 20
167.5006529920973
 30
0.0
  0
VERTEX
  5
191
330
18F
100
AcDbEntity
  8
Ebene 2
 62
   250
420
  1709851
370
    13
100
AcDbVertex
100
AcDb2dVertex
 10
344.4718797208313
 20
180.0018792264129
 30
0.0
  0
VERTEX
  5
192
330
18F
100
AcDbEntity
  8
Ebene 2
 62
   250
420
  1709851
370
    13
100
AcDbVertex
100
AcDb2dVertex
 10
351.6869479553304
 20
192.5006938922979
 30
0.0
  0
VERTEX
  5
193
330
18F
100
AcDbEntity
  8
Ebene 2
 62
   250
420
  1709851
370
    13
100
AcDbVertex
100
AcDb2dVertex
 10
366.1215630514141
 20
192.5006938922979
 30
0.0
  0
VERTEX
  5
194
330
18F
100
AcDbEntity
  8
Ebene 2
 62
   250
420
  1709851
370
    13
100
AcDbVertex
100
AcDb2dVertex
 10
373.3369757956891
 20
180.0018792264129
 30
0.0
  0
VERTEX
  5
195
330
18F
100
AcDbEntity
  8
Ebene 2
 62
   250
420
  1709851
370
    13
100
AcDbVertex
100
AcDb2dVertex
 10
366.1215630514141
 20
167.5006529920973
 30
0.0
  0
VERTEX
  5
196
330
18F
100
AcDbEntity
  8
Ebene 2
 62
   250
420
  1709851
370
    13
100
AcDbVertex
100
AcDb2dVertex
 10
351.6869479553304
 20
167.5006529920973
 30
0.0
  0
SEQEND
  5
197
330
18F
100
AcDbEntity
  8
Ebene 2
370
    13
  0
POLYLINE
  5
198
330
18B
100
AcDbEntity
  8
Ebene 2
 62
   250
420
  1709851
370
    13
100
AcDb2dPolyline
 66
     1
 10
0.0
 20
0.0
 30
0.0
  0
VERTEX
  5
199
330
198
100
AcDbEntity
  8
Ebene 2
 62
   250
420
  1709851
370
    13
100
AcDbVertex
100
AcDb2dVertex
 10
366.1215630514141
 20
137.5007417157669
 30
0.0
  0
VERTEX
  5
19A
330
198
100
AcDbEntity
  8
Ebene 2
 62
   250
420
  1709851
370
    13
100
AcDbVertex
100
AcDb2dVertex
 10
373.3369757956891
 20
150.0019679500825
 30
0.0
  0
VERTEX
  5
19B
330
198
100
AcDbEntity
  8
Ebene 2
 62
   250
420
  1709851
370
    13
100
AcDbVertex
100
AcDb2dVertex
 10
366.1215630514141
 20
162.5007826159675
 30
0.0
  0
VERTEX
  5
19C
330
198
100
AcDbEntity
  8
Ebene 2
 62
   250
420
  1709851
370
    13
100
AcDbVertex
100
AcDb2dVertex
 10
351.6869479553304
 20
162.5007826159675
 30
0.0
  0
VERTEX
  5
19D
330
198
100
AcDbEntity
  8
Ebene 2
 62
   250
420
  1709851
370
    13
100
AcDbVertex
100
AcDb2dVertex
 10
344.4718797208313
 20
150.0019679500825
 30
0.0
  0
VERTEX
  5
19E
330
198
100
AcDbEntity
  8
Ebene 2
 62
   250
420
  1709851
370
    13
100
AcDbVertex
100
AcDb2dVertex
 10
351.6869479553304
 20
137.5007417157669
 30
0.0
  0
VERTEX
  5
19F
330
198
100
AcDbEntity
  8
Ebene 2
 62
   250
420
  1709851
370
    13
100
AcDbVertex
100
AcDb2dVertex
 10
366.1215630514141
 20
137.5007417157669
 30
0.0
  0
SEQEND
  5
1A0
330
198
100
AcDbEntity
  8
Ebene 2
370
    13
  0
POLYLINE
  5
1A1
330
18B
100
AcDbEntity
  8
Ebene 2
 62
   250
420
  1709851
370
    13
100
AcDb2dPolyline
 66
     1
 10
0.0
 20
0.0
 30
0.0
  0
VERTEX
  5
1A2
330
1A1
100
AcDbEntity
  8
Ebene 2
 62
   250
420
  1709851
370
    13
100
AcDbVertex
100
AcDb2dVertex
 10
366.1215630514141
 20
107.5008304394365
 30
0.0
  0
VERTEX
  5
1A3
330
1A1
100
AcDbEntity
  8
Ebene 2
 62
   250
420
  1709851
370
    13
100
AcDbVertex
100
AcDb2dVertex
 10
373.3369757956891
 20
120.0017121639763
 30
0.0
  0
VERTEX
  5
1A4
330
1A1
100
AcDbEntity
  8
Ebene 2
 62
   250
420
  1709851
370
    13
100
AcDbVertex
100
AcDb2dVertex
 10
366.1215630514141
 20
132.5008713396371
 30
0.0
  0
VERTEX
  5
1A5
330
1A1
100
AcDbEntity
  8
Ebene 2
 62
   250
420
  1709851
370
    13
100
AcDbVertex
100
AcDb2dVertex
 10
351.6869479553304
 20
132.5008713396371
 30
0.0
  0
VERTEX
  5
1A6
330
1A1
100
AcDbEntity
  8
Ebene 2
 62
   250
420
  1709851
370
    13
100
AcDbVertex
100
AcDb2dVertex
 10
344.4718797208313
 20
120.0017121639763
 30
0.0
  0
VERTEX
  5
1A7
330
1A1
100
AcDbEntity
  8
Ebene 2
 62
   250
420
  1709851
370
    13
100
AcDbVertex
100
AcDb2dVertex
 10
351.6869479553304
 20
107.5008304394365
 30
0.0
  0
VERTEX
  5
1A8
330
1A1
100
AcDbEntity
  8
Ebene 2
 62
   250
420
  1709851
370
    13
100
AcDbVertex
100
AcDb2dVertex
 10
366.1215630514141
 20
107.5008304394365
 30
0.0
  0
SEQEND
  5
1A9
330
1A1
100
AcDbEntity
  8
Ebene 2
370
    13
  0
POLYLINE
  5
1AA
330
18B
100
AcDbEntity
  8
Ebene 2
 62
   250
420
  1709851
370
    13
100
AcDb2dPolyline
 66
     1
 10
0.0
 20
0.0
 30
0.0
  0
VERTEX
  5
1AB
330
1AA
100
AcDbEntity
  8
Ebene 2
 62
   250
420
  1709851
370
    13
100
AcDbVertex
100
AcDb2dVertex
 10
366.1215630514141
 20
77.50091916310615
 30
0.0
  0
VERTEX
  5
1AC
330
1AA
100
AcDbEntity
  8
Ebene 2
 62
   250
420
  1709851
370
    13
100
AcDbVertex
100
AcDb2dVertex
 10
373.3369757956891
 20
90.00180088764593
 30
0.0
  0
VERTEX
  5
1AD
330
1AA
100
AcDbEntity
  8
Ebene 2
 62
   250
420
  1709851
370
    13
100
AcDbVertex
100
AcDb2dVertex
 10
366.1215630514141
 20
102.5009600633067
 30
0.0
  0
VERTEX
  5
1AE
330
1AA
100
AcDbEntity
  8
Ebene 2
 62
   250
420
  1709851
370
    13
100
AcDbVertex
100
AcDb2dVertex
 10
351.6869479553304
 20
102.5009600633067
 30
0.0
  0
VERTEX
  5
1AF
330
1AA
100
AcDbEntity
  8
Ebene 2
 62
   250
420
  1709851
370
    13
100
AcDbVertex
100
AcDb2dVertex
 10
344.4718797208313
 20
90.00180088764593
 30
0.0
  0
VERTEX
  5
1B0
330
1AA
100
AcDbEntity
  8
Ebene 2
 62
   250
420
  1709851
370
    13
100
AcDbVertex
100
AcDb2dVertex
 10
351.6869479553304
 20
77.50091916310615
 30
0.0
  0
VERTEX
  5
1B1
330
1AA
100
AcDbEntity
  8
Ebene 2
 62
   250
420
  1709851
370
    13
100
AcDbVertex
100
AcDb2dVertex
 10
366.1215630514141
 20
77.50091916310615
 30
0.0
  0
SEQEND
  5
1B2
330
1AA
100
AcDbEntity
  8
Ebene 2
370
    13
  0
POLYLINE
  5
1B3
330
18B
100
AcDbEntity
  8
Ebene 2
 62
   250
420
  1709851
370
    13
100
AcDb2dPolyline
 66
     1
 10
0.0
 20
0.0
 30
0.0
  0
VERTEX
  5
1B4
330
1B3
100
AcDbEntity
  8
Ebene 2
 62
   250
420
  1709851
370
    13
100
AcDbVertex
100
AcDb2dVertex
 10
366.1215630514141
 20
47.50100788677576
 30
0.0
  0
VERTEX
  5
1B5
330
1B3
100
AcDbEntity
  8
Ebene 2
 62
   250
420
  1709851
370
    13
100
AcDbVertex
100
AcDb2dVertex
 10
373.3369757956891
 20
60.00188961131554
 30
0.0
  0
VERTEX
  5
1B6
330
1B3
100
AcDbEntity
  8
Ebene 2
 62
   250
420
  1709851
370
    13
100
AcDbVertex
100
AcDb2dVertex
 10
366.1215630514141
 20
72.50104878697634
 30
0.0
  0
VERTEX
  5
1B7
330
1B3
100
AcDbEntity
  8
Ebene 2
 62
   250
420
  1709851
370
    13
100
AcDbVertex
100
AcDb2dVertex
 10
351.6869479553304
 20
72.50104878697634
 30
0.0
  0
VERTEX
  5
1B8
330
1B3
100
AcDbEntity
  8
Ebene 2
 62
   250
420
  1709851
370
    13
100
AcDbVertex
100
AcDb2dVertex
 10
344.4718797208313
 20
60.00188961131554
 30
0.0
  0
VERTEX
  5
1B9
330
1B3
100
AcDbEntity
  8
Ebene 2
 62
   250
420
  1709851
370
    13
100
AcDbVertex
100
AcDb2dVertex
 10
351.6869479553304
 20
47.50100788677576
 30
0.0
  0
VERTEX
  5
1BA
330
1B3
100
AcDbEntity
  8
Ebene 2
 62
   250
420
  1709851
370
    13
100
AcDbVertex
100
AcDb2dVertex
 10
366.1215630514141
 20
47.50100788677576
 30
0.0
  0
SEQEND
  5
1BB
330
1B3
100
AcDbEntity
  8
Ebene 2
370
    13
  0
POLYLINE
  5
1BC
330
18B
100
AcDbEntity
  8
Ebene 2
 62
   250
420
  1709851
370
    13
100
AcDb2dPolyline
 66
     1
 10
0.0
 20
0.0
 30
0.0
  0
VERTEX
  5
1BD
330
1BC
100
AcDbEntity
  8
Ebene 2
 62
   250
420
  1709851
370
    13
100
AcDbVertex
100
AcDb2dVertex
 10
366.1215630514141
 20
17.50075210066958
 30
0.0
  0
VERTEX
  5
1BE
330
1BC
100
AcDbEntity
  8
Ebene 2
 62
   250
420
  1709851
370
    13
100
AcDbVertex
100
AcDb2dVertex
 10
373.3369757956891
 20
30.00163382520936
 30
0.0
  0
VERTEX
  5
1BF
330
1BC
100
AcDbEntity
  8
Ebene 2
 62
   250
420
  1709851
370
    13
100
AcDbVertex
100
AcDb2dVertex
 10
366.1215630514141
 20
42.50079300087017
 30
0.0
  0
VERTEX
  5
1C0
330
1BC
100
AcDbEntity
  8
Ebene 2
 62
   250
420
  1709851
370
    13
100
AcDbVertex
100
AcDb2dVertex
 10
351.6869479553304
 20
42.50079300087017
 30
0.0
  0
VERTEX
  5
1C1
330
1BC
100
AcDbEntity
  8
Ebene 2
 62
   250
420
  1709851
370
    13
100
AcDbVertex
100
AcDb2dVertex
 10
344.4718797208313
 20
30.00163382520936
 30
0.0
  0
VERTEX
  5
1C2
330
1BC
100
AcDbEntity
  8
Ebene 2
 62
   250
420
  1709851
370
    13
100
AcDbVertex
100
AcDb2dVertex
 10
351.6869479553304
 20
17.50075210066958
 30
0.0
  0
VERTEX
  5
1C3
330
1BC
100
AcDbEntity
  8
Ebene 2
 62
   250
420
  1709851
370
    13
100
AcDbVertex
100
AcDb2dVertex
 10
366.1215630514141
 20
17.50075210066958
 30
0.0
  0
SEQEND
  5
1C4
330
1BC
100
AcDbEntity
  8
Ebene 2
370
    13
  0
POLYLINE
  5
1C5
330
18B
100
AcDbEntity
  8
Ebene 2
 62
   250
420
  1709851
370
    13
100
AcDb2dPolyline
 66
     1
 10
0.0
 20
0.0
 30
0.0
  0
VERTEX
  5
1C6
330
1C5
100
AcDbEntity
  8
Ebene 2
 62
   250
420
  1709851
370
    13
100
AcDbVertex
100
AcDb2dVertex
 10
366.1215630514141
 20
197.5009087782035
 30
0.0
  0
VERTEX
  5
1C7
330
1C5
100
AcDbEntity
  8
Ebene 2
 62
   250
420
  1709851
370
    13
100
AcDbVertex
100
AcDb2dVertex
 10
373.3369757956891
 20
210.0021350125191
 30
0.0
  0
VERTEX
  5
1C8
330
1C5
100
AcDbEntity
  8
Ebene 2
 62
   250
420
  1709851
370
    13
100
AcDbVertex
100
AcDb2dVertex
 10
366.1215630514141
 20
222.5009496784041
 30
0.0
  0
VERTEX
  5
1C9
330
1C5
100
AcDbEntity
  8
Ebene 2
 62
   250
420
  1709851
370
    13
100
AcDbVertex
100
AcDb2dVertex
 10
351.6869479553304
 20
222.5009496784041
 30
0.0
  0
VERTEX
  5
1CA
330
1C5
100
AcDbEntity
  8
Ebene 2
 62
   250
420
  1709851
370
    13
100
AcDbVertex
100
AcDb2dVertex
 10
344.4718797208313
 20
210.0021350125191
 30
0.0
  0
VERTEX
  5
1CB
330
1C5
100
AcDbEntity
  8
Ebene 2
 62
   250
420
  1709851
370
    13
100
AcDbVertex
100
AcDb2dVertex
 10
351.6869479553304
 20
197.5009087782035
 30
0.0
  0
VERTEX
  5
1CC
330
1C5
100
AcDbEntity
  8
Ebene 2
 62
   250
420
  1709851
370
    13
100
AcDbVertex
100
AcDb2dVertex
 10
366.1215630514141
 20
197.5009087782035
 30
0.0
  0
SEQEND
  5
1CD
330
1C5
100
AcDbEntity
  8
Ebene 2
370
    13
  0
POLYLINE
  5
1CE
330
18B
100
AcDbEntity
  8
Ebene 2
 62
   250
420
  1709851
370
    13
100
AcDb2dPolyline
 66
     1
 10
0.0
 20
0.0
 30
0.0
  0
VERTEX
  5
1CF
330
1CE
100
AcDbEntity
  8
Ebene 2
 62
   250
420
  1709851
370
    13
100
AcDbVertex
100
AcDb2dVertex
 10
366.1215630514141
 20
227.5008200545338
 30
0.0
  0
VERTEX
  5
1D0
330
1CE
100
AcDbEntity
  8
Ebene 2
 62
   250
420
  1709851
370
    13
100
AcDbVertex
100
AcDb2dVertex
 10
373.3369757956891
 20
240.0020462888494
 30
0.0
  0
VERTEX
  5
1D1
330
1CE
100
AcDbEntity
  8
Ebene 2
 62
   250
420
  1709851
370
    13
100
AcDbVertex
100
AcDb2dVertex
 10
366.1215630514141
 20
252.5008609547344
 30
0.0
  0
VERTEX
  5
1D2
330
1CE
100
AcDbEntity
  8
Ebene 2
 62
   250
420
  1709851
370
    13
100
AcDbVertex
100
AcDb2dVertex
 10
351.6869479553304
 20
252.5008609547344
 30
0.0
  0
VERTEX
  5
1D3
330
1CE
100
AcDbEntity
  8
Ebene 2
 62
   250
420
  1709851
370
    13
100
AcDbVertex
100
AcDb2dVertex
 10
344.4718797208313
 20
240.0020462888494
 30
0.0
  0
VERTEX
  5
1D4
330
1CE
100
AcDbEntity
  8
Ebene 2
 62
   250
420
  1709851
370
    13
100
AcDbVertex
100
AcDb2dVertex
 10
351.6869479553304
 20
227.5008200545338
 30
0.0
  0
VERTEX
  5
1D5
330
1CE
100
AcDbEntity
  8
Ebene 2
 62
   250
420
  1709851
370
    13
100
AcDbVertex
100
AcDb2dVertex
 10
366.1215630514141
 20
227.5008200545338
 30
0.0
  0
SEQEND
  5
1D6
330
1CE
100
AcDbEntity
  8
Ebene 2
370
    13
  0
ENDBLK
  5
18E
330
18B
100
AcDbEntity
  8
0
100
AcDbBlockEnd
  0
BLOCK
  5
1D9
330
1D7
100
AcDbEntity
  8
0
100
AcDbBlockBegin
  2
block 3
 70
     0
 71
     0
 10
0.0
 20
0.0
 30
0.0
  3
block 3
  1

  0
POLYLINE
  5
1DB
330
1D7
100
AcDbEntity
  8
Ebene 2
 62
   250
420
  1709851
370
    13
100
AcDb2dPolyline
 66
     1
 10
0.0
 20
0.0
 30
0.0
  0
VERTEX
  5
1DC
330
1DB
100
AcDbEntity
  8
Ebene 2
 62
   250
420
  1709851
370
    13
100
AcDbVertex
100
AcDb2dVertex
 10
392.7711167581268
 20
182.5006086302625
 30
0.0
  0
VERTEX
  5
1DD
330
1DB
100
AcDbEntity
  8
Ebene 2
 62
   250
420
  1709851
370
    13
100
AcDbVertex
100
AcDb2dVertex
 10
399.9865295024017
 20
195.0018348645781
 30
0.0
  0
VERTEX
  5
1DE
330
1DB
100
AcDbEntity
  8
Ebene 2
 62
   250
420
  1709851
370
    13
100
AcDbVertex
100
AcDb2dVertex
 10
392.7711167581268
 20
207.5006495304631
 30
0.0
  0
VERTEX
  5
1DF
330
1DB
100
AcDbEntity
  8
Ebene 2
 62
   250
420
  1709851
370
    13
100
AcDbVertex
100
AcDb2dVertex
 10
378.3365016620431
 20
207.5006495304631
 30
0.0
  0
VERTEX
  5
1E0
330
1DB
100
AcDbEntity
  8
Ebene 2
 62
   250
420
  1709851
370
    13
100
AcDbVertex
100
AcDb2dVertex
 10
371.1214334275439
 20
195.0018348645781
 30
0.0
  0
VERTEX
  5
1E1
330
1DB
100
AcDbEntity
  8
Ebene 2
 62
   250
420
  1709851
370
    13
100
AcDbVertex
100
AcDb2dVertex
 10
378.3365016620431
 20
182.5006086302625
 30
0.0
  0
VERTEX
  5
1E2
330
1DB
100
AcDbEntity
  8
Ebene 2
 62
   250
420
  1709851
370
    13
100
AcDbVertex
100
AcDb2dVertex
 10
392.7711167581268
 20
182.5006086302625
 30
0.0
  0
SEQEND
  5
1E3
330
1DB
100
AcDbEntity
  8
Ebene 2
370
    13
  0
POLYLINE
  5
1E4
330
1D7
100
AcDbEntity
  8
Ebene 2
 62
   250
420
  1709851
370
    13
100
AcDb2dPolyline
 66
     1
 10
0.0
 20
0.0
 30
0.0
  0
VERTEX
  5
1E5
330
1E4
100
AcDbEntity
  8
Ebene 2
 62
   250
420
  1709851
370
    13
100
AcDbVertex
100
AcDb2dVertex
 10
392.7711167581268
 20
152.5006973539321
 30
0.0
  0
VERTEX
  5
1E6
330
1E4
100
AcDbEntity
  8
Ebene 2
 62
   250
420
  1709851
370
    13
100
AcDbVertex
100
AcDb2dVertex
 10
399.9865295024017
 20
165.0019235882477
 30
0.0
  0
VERTEX
  5
1E7
330
1E4
100
AcDbEntity
  8
Ebene 2
 62
   250
420
  1709851
370
    13
100
AcDbVertex
100
AcDb2dVertex
 10
392.7711167581268
 20
177.5007382541327
 30
0.0
  0
VERTEX
  5
1E8
330
1E4
100
AcDbEntity
  8
Ebene 2
 62
   250
420
  1709851
370
    13
100
AcDbVertex
100
AcDb2dVertex
 10
378.3365016620431
 20
177.5007382541327
 30
0.0
  0
VERTEX
  5
1E9
330
1E4
100
AcDbEntity
  8
Ebene 2
 62
   250
420
  1709851
370
    13
100
AcDbVertex
100
AcDb2dVertex
 10
371.1214334275439
 20
165.0019235882477
 30
0.0
  0
VERTEX
  5
1EA
330
1E4
100
AcDbEntity
  8
Ebene 2
 62
   250
420
  1709851
370
    13
100
AcDbVertex
100
AcDb2dVertex
 10
378.3365016620431
 20
152.5006973539321
 30
0.0
  0
VERTEX
  5
1EB
330
1E4
100
AcDbEntity
  8
Ebene 2
 62
   250
420
  1709851
370
    13
100
AcDbVertex
100
AcDb2dVertex
 10
392.7711167581268
 20
152.5006973539321
 30
0.0
  0
SEQEND
  5
1EC
330
1E4
100
AcDbEntity
  8
Ebene 2
370
    13
  0
POLYLINE
  5
1ED
330
1D7
100
AcDbEntity
  8
Ebene 2
 62
   250
420
  1709851
370
    13
100
AcDb2dPolyline
 66
     1
 10
0.0
 20
0.0
 30
0.0
  0
VERTEX
  5
1EE
330
1ED
100
AcDbEntity
  8
Ebene 2
 62
   250
420
  1709851
370
    13
100
AcDbVertex
100
AcDb2dVertex
 10
392.7711167581268
 20
122.5007860776017
 30
0.0
  0
VERTEX
  5
1EF
330
1ED
100
AcDbEntity
  8
Ebene 2
 62
   250
420
  1709851
370
    13
100
AcDbVertex
100
AcDb2dVertex
 10
399.9865295024017
 20
135.0016678021415
 30
0.0
  0
VERTEX
  5
1F0
330
1ED
100
AcDbEntity
  8
Ebene 2
 62
   250
420
  1709851
370
    13
100
AcDbVertex
100
AcDb2dVertex
 10
392.7711167581268
 20
147.5008269778023
 30
0.0
  0
VERTEX
  5
1F1
330
1ED
100
AcDbEntity
  8
Ebene 2
 62
   250
420
  1709851
370
    13
100
AcDbVertex
100
AcDb2dVertex
 10
378.3365016620431
 20
147.5008269778023
 30
0.0
  0
VERTEX
  5
1F2
330
1ED
100
AcDbEntity
  8
Ebene 2
 62
   250
420
  1709851
370
    13
100
AcDbVertex
100
AcDb2dVertex
 10
371.1214334275439
 20
135.0016678021415
 30
0.0
  0
VERTEX
  5
1F3
330
1ED
100
AcDbEntity
  8
Ebene 2
 62
   250
420
  1709851
370
    13
100
AcDbVertex
100
AcDb2dVertex
 10
378.3365016620431
 20
122.5007860776017
 30
0.0
  0
VERTEX
  5
1F4
330
1ED
100
AcDbEntity
  8
Ebene 2
 62
   250
420
  1709851
370
    13
100
AcDbVertex
100
AcDb2dVertex
 10
392.7711167581268
 20
122.5007860776017
 30
0.0
  0
SEQEND
  5
1F5
330
1ED
100
AcDbEntity
  8
Ebene 2
370
    13
  0
POLYLINE
  5
1F6
330
1D7
100
AcDbEntity
  8
Ebene 2
 62
   250
420
  1709851
370
    13
100
AcDb2dPolyline
 66
     1
 10
0.0
 20
0.0
 30
0.0
  0
VERTEX
  5
1F7
330
1F6
100
AcDbEntity
  8
Ebene 2
 62
   250
420
  1709851
370
    13
100
AcDbVertex
100
AcDb2dVertex
 10
392.7711167581268
 20
92.50087480127134
 30
0.0
  0
VERTEX
  5
1F8
330
1F6
100
AcDbEntity
  8
Ebene 2
 62
   250
420
  1709851
370
    13
100
AcDbVertex
100
AcDb2dVertex
 10
399.9865295024017
 20
105.0017565258111
 30
0.0
  0
VERTEX
  5
1F9
330
1F6
100
AcDbEntity
  8
Ebene 2
 62
   250
420
  1709851
370
    13
100
AcDbVertex
100
AcDb2dVertex
 10
392.7711167581268
 20
117.5009157014719
 30
0.0
  0
VERTEX
  5
1FA
330
1F6
100
AcDbEntity
  8
Ebene 2
 62
   250
420
  1709851
370
    13
100
AcDbVertex
100
AcDb2dVertex
 10
378.3365016620431
 20
117.5009157014719
 30
0.0
  0
VERTEX
  5
1FB
330
1F6
100
AcDbEntity
  8
Ebene 2
 62
   250
420
  1709851
370
    13
100
AcDbVertex
100
AcDb2dVertex
 10
371.1214334275439
 20
105.0017565258111
 30
0.0
  0
VERTEX
  5
1FC
330
1F6
100
AcDbEntity
  8
Ebene 2
 62
   250
420
  1709851
370
    13
100
AcDbVertex
100
AcDb2dVertex
 10
378.3365016620431
 20
92.50087480127134
 30
0.0
  0
VERTEX
  5
1FD
330
1F6
100
AcDbEntity
  8
Ebene 2
 62
   250
420
  1709851
370
    13
100
AcDbVertex
100
AcDb2dVertex
 10
392.7711167581268
 20
92.50087480127134
 30
0.0
  0
SEQEND
  5
1FE
330
1F6
100
AcDbEntity
  8
Ebene 2
370
    13
  0
POLYLINE
  5
1FF
330
1D7
100
AcDbEntity
  8
Ebene 2
 62
   250
420
  1709851
370
    13
100
AcDb2dPolyline
 66
     1
 10
0.0
 20
0.0
 30
0.0
  0
VERTEX
  5
200
330
1FF
100
AcDbEntity
  8
Ebene 2
 62
   250
420
  1709851
370
    13
100
AcDbVertex
100
AcDb2dVertex
 10
392.7711167581268
 20
62.50096352494095
 30
0.0
  0
VERTEX
  5
201
330
1FF
100
AcDbEntity
  8
Ebene 2
 62
   250
420
  1709851
370
    13
100
AcDbVertex
100
AcDb2dVertex
 10
399.9865295024017
 20
75.00184524948074
 30
0.0
  0
VERTEX
  5
202
330
1FF
100
AcDbEntity
  8
Ebene 2
 62
   250
420
  1709851
370
    13
100
AcDbVertex
100
AcDb2dVertex
 10
392.7711167581268
 20
87.50100442514153
 30
0.0
  0
VERTEX
  5
203
330
1FF
100
AcDbEntity
  8
Ebene 2
 62
   250
420
  1709851
370
    13
100
AcDbVertex
100
AcDb2dVertex
 10
378.3365016620431
 20
87.50100442514153
 30
0.0
  0
VERTEX
  5
204
330
1FF
100
AcDbEntity
  8
Ebene 2
 62
   250
420
  1709851
370
    13
100
AcDbVertex
100
AcDb2dVertex
 10
371.1214334275439
 20
75.00184524948074
 30
0.0
  0
VERTEX
  5
205
330
1FF
100
AcDbEntity
  8
Ebene 2
 62
   250
420
  1709851
370
    13
100
AcDbVertex
100
AcDb2dVertex
 10
378.3365016620431
 20
62.50096352494095
 30
0.0
  0
VERTEX
  5
206
330
1FF
100
AcDbEntity
  8
Ebene 2
 62
   250
420
  1709851
370
    13
100
AcDbVertex
100
AcDb2dVertex
 10
392.7711167581268
 20
62.50096352494095
 30
0.0
  0
SEQEND
  5
207
330
1FF
100
AcDbEntity
  8
Ebene 2
370
    13
  0
POLYLINE
  5
208
330
1D7
100
AcDbEntity
  8
Ebene 2
 62
   250
420
  1709851
370
    13
100
AcDb2dPolyline
 66
     1
 10
0.0
 20
0.0
 30
0.0
  0
VERTEX
  5
209
330
208
100
AcDbEntity
  8
Ebene 2
 62
   250
420
  1709851
370
    13
100
AcDbVertex
100
AcDb2dVertex
 10
392.7711167581268
 20
32.50070773883477
 30
0.0
  0
VERTEX
  5
20A
330
208
100
AcDbEntity
  8
Ebene 2
 62
   250
420
  1709851
370
    13
100
AcDbVertex
100
AcDb2dVertex
 10
399.9865295024017
 20
45.00158946337456
 30
0.0
  0
VERTEX
  5
20B
330
208
100
AcDbEntity
  8
Ebene 2
 62
   250
420
  1709851
370
    13
100
AcDbVertex
100
AcDb2dVertex
 10
392.7711167581268
 20
57.50074863903536
 30
0.0
  0
VERTEX
  5
20C
330
208
100
AcDbEntity
  8
Ebene 2
 62
   250
420
  1709851
370
    13
100
AcDbVertex
100
AcDb2dVertex
 10
378.3365016620431
 20
57.50074863903536
 30
0.0
  0
VERTEX
  5
20D
330
208
100
AcDbEntity
  8
Ebene 2
 62
   250
420
  1709851
370
    13
100
AcDbVertex
100
AcDb2dVertex
 10
371.1214334275439
 20
45.00158946337456
 30
0.0
  0
VERTEX
  5
20E
330
208
100
AcDbEntity
  8
Ebene 2
 62
   250
420
  1709851
370
    13
100
AcDbVertex
100
AcDb2dVertex
 10
378.3365016620431
 20
32.50070773883477
 30
0.0
  0
VERTEX
  5
20F
330
208
100
AcDbEntity
  8
Ebene 2
 62
   250
420
  1709851
370
    13
100
AcDbVertex
100
AcDb2dVertex
 10
392.7711167581268
 20
32.50070773883477
 30
0.0
  0
SEQEND
  5
210
330
208
100
AcDbEntity
  8
Ebene 2
370
    13
  0
POLYLINE
  5
211
330
1D7
100
AcDbEntity
  8
Ebene 2
 62
   250
420
  1709851
370
    13
100
AcDb2dPolyline
 66
     1
 10
0.0
 20
0.0
 30
0.0
  0
VERTEX
  5
212
330
211
100
AcDbEntity
  8
Ebene 2
 62
   250
420
  1709851
370
    13
100
AcDbVertex
100
AcDb2dVertex
 10
392.7711167581268
 20
212.5008644163687
 30
0.0
  0
VERTEX
  5
213
330
211
100
AcDbEntity
  8
Ebene 2
 62
   250
420
  1709851
370
    13
100
AcDbVertex
100
AcDb2dVertex
 10
399.9865295024017
 20
225.0020906506842
 30
0.0
  0
VERTEX
  5
214
330
211
100
AcDbEntity
  8
Ebene 2
 62
   250
420
  1709851
370
    13
100
AcDbVertex
100
AcDb2dVertex
 10
392.7711167581268
 20
237.5009053165693
 30
0.0
  0
VERTEX
  5
215
330
211
100
AcDbEntity
  8
Ebene 2
 62
   250
420
  1709851
370
    13
100
AcDbVertex
100
AcDb2dVertex
 10
378.3365016620431
 20
237.5009053165693
 30
0.0
  0
VERTEX
  5
216
330
211
100
AcDbEntity
  8
Ebene 2
 62
   250
420
  1709851
370
    13
100
AcDbVertex
100
AcDb2dVertex
 10
371.1214334275439
 20
225.0020906506842
 30
0.0
  0
VERTEX
  5
217
330
211
100
AcDbEntity
  8
Ebene 2
 62
   250
420
  1709851
370
    13
100
AcDbVertex
100
AcDb2dVertex
 10
378.3365016620431
 20
212.5008644163687
 30
0.0
  0
VERTEX
  5
218
330
211
100
AcDbEntity
  8
Ebene 2
 62
   250
420
  1709851
370
    13
100
AcDbVertex
100
AcDb2dVertex
 10
392.7711167581268
 20
212.5008644163687
 30
0.0
  0
SEQEND
  5
219
330
211
100
AcDbEntity
  8
Ebene 2
370
    13
  0
POLYLINE
  5
21A
330
1D7
100
AcDbEntity
  8
Ebene 2
 62
   250
420
  1709851
370
    13
100
AcDb2dPolyline
 66
     1
 10
0.0
 20
0.0
 30
0.0
  0
VERTEX
  5
21B
330
21A
100
AcDbEntity
  8
Ebene 2
 62
   250
420
  1709851
370
    13
100
AcDbVertex
100
AcDb2dVertex
 10
392.7711167581268
 20
242.5007756926991
 30
0.0
  0
VERTEX
  5
21C
330
21A
100
AcDbEntity
  8
Ebene 2
 62
   250
420
  1709851
370
    13
100
AcDbVertex
100
AcDb2dVertex
 10
399.9865295024017
 20
255.0020019270146
 30
0.0
  0
VERTEX
  5
21D
330
21A
100
AcDbEntity
  8
Ebene 2
 62
   250
420
  1709851
370
    13
100
AcDbVertex
100
AcDb2dVertex
 10
392.7711167581268
 20
267.5008165928996
 30
0.0
  0
VERTEX
  5
21E
330
21A
100
AcDbEntity
  8
Ebene 2
 62
   250
420
  1709851
370
    13
100
AcDbVertex
100
AcDb2dVertex
 10
378.3365016620431
 20
267.5008165928996
 30
0.0
  0
VERTEX
  5
21F
330
21A
100
AcDbEntity
  8
Ebene 2
 62
   250
420
  1709851
370
    13
100
AcDbVertex
100
AcDb2dVertex
 10
371.1214334275439
 20
255.0020019270146
 30
0.0
  0
VERTEX
  5
220
330
21A
100
AcDbEntity
  8
Ebene 2
 62
   250
420
  1709851
370
    13
100
AcDbVertex
100
AcDb2dVertex
 10
378.3365016620431
 20
242.5007756926991
 30
0.0
  0
VERTEX
  5
221
330
21A
100
AcDbEntity
  8
Ebene 2
 62
   250
420
  1709851
370
    13
100
AcDbVertex
100
AcDb2dVertex
 10
392.7711167581268
 20
242.5007756926991
 30
0.0
  0
SEQEND
  5
222
330
21A
100
AcDbEntity
  8
Ebene 2
370
    13
  0
ENDBLK
  5
1DA
330
1D7
100
AcDbEntity
  8
0
100
AcDbBlockEnd
  0
BLOCK
  5
225
330
223
100
AcDbEntity
  8
0
100
AcDbBlockBegin
  2
block 4
 70
     0
 71
     0
 10
0.0
 20
0.0
 30
0.0
  3
block 4
  1

  0
POLYLINE
  5
227
330
223
100
AcDbEntity
  8
Ebene 2
 62
   250
420
  1709851
370
    13
100
AcDb2dPolyline
 66
     1
 10
0.0
 20
0.0
 30
0.0
  0
VERTEX
  5
228
330
227
100
AcDbEntity
  8
Ebene 2
 62
   250
420
  1709851
370
    13
100
AcDbVertex
100
AcDb2dVertex
 10
419.4206704648394
 20
167.5006529920973
 30
0.0
  0
VERTEX
  5
229
330
227
100
AcDbEntity
  8
Ebene 2
 62
   250
420
  1709851
370
    13
100
AcDbVertex
100
AcDb2dVertex
 10
426.6357386993386
 20
180.0018792264129
 30
0.0
  0
VERTEX
  5
22A
330
227
100
AcDbEntity
  8
Ebene 2
 62
   250
420
  1709851
370
    13
100
AcDbVertex
100
AcDb2dVertex
 10
419.4206704648394
 20
192.5006938922979
 30
0.0
  0
VERTEX
  5
22B
330
227
100
AcDbEntity
  8
Ebene 2
 62
   250
420
  1709851
370
    13
100
AcDbVertex
100
AcDb2dVertex
 10
404.9860553687557
 20
192.5006938922979
 30
0.0
  0
VERTEX
  5
22C
330
227
100
AcDbEntity
  8
Ebene 2
 62
   250
420
  1709851
370
    13
100
AcDbVertex
100
AcDb2dVertex
 10
397.7709871342565
 20
180.0018792264129
 30
0.0
  0
VERTEX
  5
22D
330
227
100
AcDbEntity
  8
Ebene 2
 62
   250
420
  1709851
370
    13
100
AcDbVertex
100
AcDb2dVertex
 10
404.9860553687557
 20
167.5006529920973
 30
0.0
  0
VERTEX
  5
22E
330
227
100
AcDbEntity
  8
Ebene 2
 62
   250
420
  1709851
370
    13
100
AcDbVertex
100
AcDb2dVertex
 10
419.4206704648394
 20
167.5006529920973
 30
0.0
  0
SEQEND
  5
22F
330
227
100
AcDbEntity
  8
Ebene 2
370
    13
  0
POLYLINE
  5
230
330
223
100
AcDbEntity
  8
Ebene 2
 62
   250
420
  1709851
370
    13
100
AcDb2dPolyline
 66
     1
 10
0.0
 20
0.0
 30
0.0
  0
VERTEX
  5
231
330
230
100
AcDbEntity
  8
Ebene 2
 62
   250
420
  1709851
370
    13
100
AcDbVertex
100
AcDb2dVertex
 10
419.4206704648394
 20
137.5007417157669
 30
0.0
  0
VERTEX
  5
232
330
230
100
AcDbEntity
  8
Ebene 2
 62
   250
420
  1709851
370
    13
100
AcDbVertex
100
AcDb2dVertex
 10
426.6357386993386
 20
150.0019679500825
 30
0.0
  0
VERTEX
  5
233
330
230
100
AcDbEntity
  8
Ebene 2
 62
   250
420
  1709851
370
    13
100
AcDbVertex
100
AcDb2dVertex
 10
419.4206704648394
 20
162.5007826159675
 30
0.0
  0
VERTEX
  5
234
330
230
100
AcDbEntity
  8
Ebene 2
 62
   250
420
  1709851
370
    13
100
AcDbVertex
100
AcDb2dVertex
 10
404.9860553687557
 20
162.5007826159675
 30
0.0
  0
VERTEX
  5
235
330
230
100
AcDbEntity
  8
Ebene 2
 62
   250
420
  1709851
370
    13
100
AcDbVertex
100
AcDb2dVertex
 10
397.7709871342565
 20
150.0019679500825
 30
0.0
  0
VERTEX
  5
236
330
230
100
AcDbEntity
  8
Ebene 2
 62
   250
420
  1709851
370
    13
100
AcDbVertex
100
AcDb2dVertex
 10
404.9860553687557
 20
137.5007417157669
 30
0.0
  0
VERTEX
  5
237
330
230
100
AcDbEntity
  8
Ebene 2
 62
   250
420
  1709851
370
    13
100
AcDbVertex
100
AcDb2dVertex
 10
419.4206704648394
 20
137.5007417157669
 30
0.0
  0
SEQEND
  5
238
330
230
100
AcDbEntity
  8
Ebene 2
370
    13
  0
POLYLINE
  5
239
330
223
100
AcDbEntity
  8
Ebene 2
 62
   250
420
  1709851
370
    13
100
AcDb2dPolyline
 66
     1
 10
0.0
 20
0.0
 30
0.0
  0
VERTEX
  5
23A
330
239
100
AcDbEntity
  8
Ebene 2
 62
   250
420
  1709851
370
    13
100
AcDbVertex
100
AcDb2dVertex
 10
419.4206704648394
 20
107.5008304394365
 30
0.0
  0
VERTEX
  5
23B
330
239
100
AcDbEntity
  8
Ebene 2
 62
   250
420
  1709851
370
    13
100
AcDbVertex
100
AcDb2dVertex
 10
426.6357386993386
 20
120.0017121639763
 30
0.0
  0
VERTEX
  5
23C
330
239
100
AcDbEntity
  8
Ebene 2
 62
   250
420
  1709851
370
    13
100
AcDbVertex
100
AcDb2dVertex
 10
419.4206704648394
 20
132.5008713396371
 30
0.0
  0
VERTEX
  5
23D
330
239
100
AcDbEntity
  8
Ebene 2
 62
   250
420
  1709851
370
    13
100
AcDbVertex
100
AcDb2dVertex
 10
404.9860553687557
 20
132.5008713396371
 30
0.0
  0
VERTEX
  5
23E
330
239
100
AcDbEntity
  8
Ebene 2
 62
   250
420
  1709851
370
    13
100
AcDbVertex
100
AcDb2dVertex
 10
397.7709871342565
 20
120.0017121639763
 30
0.0
  0
VERTEX
  5
23F
330
239
100
AcDbEntity
  8
Ebene 2
 62
   250
420
  1709851
370
    13
100
AcDbVertex
100
AcDb2dVertex
 10
404.9860553687557
 20
107.5008304394365
 30
0.0
  0
VERTEX
  5
240
330
239
100
AcDbEntity
  8
Ebene 2
 62
   250
420
  1709851
370
    13
100
AcDbVertex
100
AcDb2dVertex
 10
419.4206704648394
 20
107.5008304394365
 30
0.0
  0
SEQEND
  5
241
330
239
100
AcDbEntity
  8
Ebene 2
370
    13
  0
POLYLINE
  5
242
330
223
100
AcDbEntity
  8
Ebene 2
 62
   250
420
  1709851
370
    13
100
AcDb2dPolyline
 66
     1
 10
0.0
 20
0.0
 30
0.0
  0
VERTEX
  5
243
330
242
100
AcDbEntity
  8
Ebene 2
 62
   250
420
  1709851
370
    13
100
AcDbVertex
100
AcDb2dVertex
 10
419.4206704648394
 20
77.50091916310615
 30
0.0
  0
VERTEX
  5
244
330
242
100
AcDbEntity
  8
Ebene 2
 62
   250
420
  1709851
370
    13
100
AcDbVertex
100
AcDb2dVertex
 10
426.6357386993386
 20
90.00180088764593
 30
0.0
  0
VERTEX
  5
245
330
242
100
AcDbEntity
  8
Ebene 2
 62
   250
420
  1709851
370
    13
100
AcDbVertex
100
AcDb2dVertex
 10
419.4206704648394
 20
102.5009600633067
 30
0.0
  0
VERTEX
  5
246
330
242
100
AcDbEntity
  8
Ebene 2
 62
   250
420
  1709851
370
    13
100
AcDbVertex
100
AcDb2dVertex
 10
404.9860553687557
 20
102.5009600633067
 30
0.0
  0
VERTEX
  5
247
330
242
100
AcDbEntity
  8
Ebene 2
 62
   250
420
  1709851
370
    13
100
AcDbVertex
100
AcDb2dVertex
 10
397.7709871342565
 20
90.00180088764593
 30
0.0
  0
VERTEX
  5
248
330
242
100
AcDbEntity
  8
Ebene 2
 62
   250
420
  1709851
370
    13
100
AcDbVertex
100
AcDb2dVertex
 10
404.9860553687557
 20
77.50091916310615
 30
0.0
  0
VERTEX
  5
249
330
242
100
AcDbEntity
  8
Ebene 2
 62
   250
420
  1709851
370
    13
100
AcDbVertex
100
AcDb2dVertex
 10
419.4206704648394
 20
77.50091916310615
 30
0.0
  0
SEQEND
  5
24A
330
242
100
AcDbEntity
  8
Ebene 2
370
    13
  0
POLYLINE
  5
24B
330
223
100
AcDbEntity
  8
Ebene 2
 62
   250
420
  1709851
370
    13
100
AcDb2dPolyline
 66
     1
 10
0.0
 20
0.0
 30
0.0
  0
VERTEX
  5
24C
330
24B
100
AcDbEntity
  8
Ebene 2
 62
   250
420
  1709851
370
    13
100
AcDbVertex
100
AcDb2dVertex
 10
419.4206704648394
 20
47.50100788677576
 30
0.0
  0
VERTEX
  5
24D
330
24B
100
AcDbEntity
  8
Ebene 2
 62
   250
420
  1709851
370
    13
100
AcDbVertex
100
AcDb2dVertex
 10
426.6357386993386
 20
60.00188961131554
 30
0.0
  0
VERTEX
  5
24E
330
24B
100
AcDbEntity
  8
Ebene 2
 62
   250
420
  1709851
370
    13
100
AcDbVertex
100
AcDb2dVertex
 10
419.4206704648394
 20
72.50104878697634
 30
0.0
  0
VERTEX
  5
24F
330
24B
100
AcDbEntity
  8
Ebene 2
 62
   250
420
  1709851
370
    13
100
AcDbVertex
100
AcDb2dVertex
 10
404.9860553687557
 20
72.50104878697634
 30
0.0
  0
VERTEX
  5
250
330
24B
100
AcDbEntity
  8
Ebene 2
 62
   250
420
  1709851
370
    13
100
AcDbVertex
100
AcDb2dVertex
 10
397.7709871342565
 20
60.00188961131554
 30
0.0
  0
VERTEX
  5
251
330
24B
100
AcDbEntity
  8
Ebene 2
 62
   250
420
  1709851
370
    13
100
AcDbVertex
100
AcDb2dVertex
 10
404.9860553687557
 20
47.50100788677576
 30
0.0
  0
VERTEX
  5
252
330
24B
100
AcDbEntity
  8
Ebene 2
 62
   250
420
  1709851
370
    13
100
AcDbVertex
100
AcDb2dVertex
 10
419.4206704648394
 20
47.50100788677576
 30
0.0
  0
SEQEND
  5
253
330
24B
100
AcDbEntity
  8
Ebene 2
370
    13
  0
POLYLINE
  5
254
330
223
100
AcDbEntity
  8
Ebene 2
 62
   250
420
  1709851
370
    13
100
AcDb2dPolyline
 66
     1
 10
0.0
 20
0.0
 30
0.0
  0
VERTEX
  5
255
330
254
100
AcDbEntity
  8
Ebene 2
 62
   250
420
  1709851
370
    13
100
AcDbVertex
100
AcDb2dVertex
 10
419.4206704648394
 20
17.50075210066958
 30
0.0
  0
VERTEX
  5
256
330
254
100
AcDbEntity
  8
Ebene 2
 62
   250
420
  1709851
370
    13
100
AcDbVertex
100
AcDb2dVertex
 10
426.6357386993386
 20
30.00163382520936
 30
0.0
  0
VERTEX
  5
257
330
254
100
AcDbEntity
  8
Ebene 2
 62
   250
420
  1709851
370
    13
100
AcDbVertex
100
AcDb2dVertex
 10
419.4206704648394
 20
42.50079300087017
 30
0.0
  0
VERTEX
  5
258
330
254
100
AcDbEntity
  8
Ebene 2
 62
   250
420
  1709851
370
    13
100
AcDbVertex
100
AcDb2dVertex
 10
404.9860553687557
 20
42.50079300087017
 30
0.0
  0
VERTEX
  5
259
330
254
100
AcDbEntity
  8
Ebene 2
 62
   250
420
  1709851
370
    13
100
AcDbVertex
100
AcDb2dVertex
 10
397.7709871342565
 20
30.00163382520936
 30
0.0
  0
VERTEX
  5
25A
330
254
100
AcDbEntity
  8
Ebene 2
 62
   250
420
  1709851
370
    13
100
AcDbVertex
100
AcDb2dVertex
 10
404.9860553687557
 20
17.50075210066958
 30
0.0
  0
VERTEX
  5
25B
330
254
100
AcDbEntity
  8
Ebene 2
 62
   250
420
  1709851
370
    13
100
AcDbVertex
100
AcDb2dVertex
 10
419.4206704648394
 20
17.50075210066958
 30
0.0
  0
SEQEND
  5
25C
330
254
100
AcDbEntity
  8
Ebene 2
370
    13
  0
POLYLINE
  5
25D
330
223
100
AcDbEntity
  8
Ebene 2
 62
   250
420
  1709851
370
    13
100
AcDb2dPolyline
 66
     1
 10
0.0
 20
0.0
 30
0.0
  0
VERTEX
  5
25E
330
25D
100
AcDbEntity
  8
Ebene 2
 62
   250
420
  1709851
370
    13
100
AcDbVertex
100
AcDb2dVertex
 10
419.4206704648394
 20
197.5009087782035
 30
0.0
  0
VERTEX
  5
25F
330
25D
100
AcDbEntity
  8
Ebene 2
 62
   250
420
  1709851
370
    13
100
AcDbVertex
100
AcDb2dVertex
 10
426.6357386993386
 20
210.0021350125191
 30
0.0
  0
VERTEX
  5
260
330
25D
100
AcDbEntity
  8
Ebene 2
 62
   250
420
  1709851
370
    13
100
AcDbVertex
100
AcDb2dVertex
 10
419.4206704648394
 20
222.5009496784041
 30
0.0
  0
VERTEX
  5
261
330
25D
100
AcDbEntity
  8
Ebene 2
 62
   250
420
  1709851
370
    13
100
AcDbVertex
100
AcDb2dVertex
 10
404.9860553687557
 20
222.5009496784041
 30
0.0
  0
VERTEX
  5
262
330
25D
100
AcDbEntity
  8
Ebene 2
 62
   250
420
  1709851
370
    13
100
AcDbVertex
100
AcDb2dVertex
 10
397.7709871342565
 20
210.0021350125191
 30
0.0
  0
VERTEX
  5
263
330
25D
100
AcDbEntity
  8
Ebene 2
 62
   250
420
  1709851
370
    13
100
AcDbVertex
100
AcDb2dVertex
 10
404.9860553687557
 20
197.5009087782035
 30
0.0
  0
VERTEX
  5
264
330
25D
100
AcDbEntity
  8
Ebene 2
 62
   250
420
  1709851
370
    13
100
AcDbVertex
100
AcDb2dVertex
 10
419.4206704648394
 20
197.5009087782035
 30
0.0
  0
SEQEND
  5
265
330
25D
100
AcDbEntity
  8
Ebene 2
370
    13
  0
POLYLINE
  5
266
330
223
100
AcDbEntity
  8
Ebene 2
 62
   250
420
  1709851
370
    13
100
AcDb2dPolyline
 66
     1
 10
0.0
 20
0.0
 30
0.0
  0
VERTEX
  5
267
330
266
100
AcDbEntity
  8
Ebene 2
 62
   250
420
  1709851
370
    13
100
AcDbVertex
100
AcDb2dVertex
 10
419.4206704648394
 20
227.5008200545338
 30
0.0
  0
VERTEX
  5
268
330
266
100
AcDbEntity
  8
Ebene 2
 62
   250
420
  1709851
370
    13
100
AcDbVertex
100
AcDb2dVertex
 10
426.6357386993386
 20
240.0020462888494
 30
0.0
  0
VERTEX
  5
269
330
266
100
AcDbEntity
  8
Ebene 2
 62
   250
420
  1709851
370
    13
100
AcDbVertex
100
AcDb2dVertex
 10
419.4206704648394
 20
252.5008609547344
 30
0.0
  0
VERTEX
  5
26A
330
266
100
AcDbEntity
  8
Ebene 2
 62
   250
420
  1709851
370
    13
100
AcDbVertex
100
AcDb2dVertex
 10
404.9860553687557
 20
252.5008609547344
 30
0.0
  0
VERTEX
  5
26B
330
266
100
AcDbEntity
  8
Ebene 2
 62
   250
420
  1709851
370
    13
100
AcDbVertex
100
AcDb2dVertex
 10
397.7709871342565
 20
240.0020462888494
 30
0.0
  0
VERTEX
  5
26C
330
266
100
AcDbEntity
  8
Ebene 2
 62
   250
420
  1709851
370
    13
100
AcDbVertex
100
AcDb2dVertex
 10
404.9860553687557
 20
227.5008200545338
 30
0.0
  0
VERTEX
  5
26D
330
266
100
AcDbEntity
  8
Ebene 2
 62
   250
420
  1709851
370
    13
100
AcDbVertex
100
AcDb2dVertex
 10
419.4206704648394
 20
227.5008200545338
 30
0.0
  0
SEQEND
  5
26E
330
266
100
AcDbEntity
  8
Ebene 2
370
    13
  0
ENDBLK
  5
226
330
223
100
AcDbEntity
  8
0
100
AcDbBlockEnd
  0
BLOCK
  5
271
330
26F
100
AcDbEntity
  8
0
100
AcDbBlockBegin
  2
block 5
 70
     0
 71
     0
 10
0.0
 20
0.0
 30
0.0
  3
block 5
  1

  0
POLYLINE
  5
273
330
26F
100
AcDbEntity
  8
Ebene 2
 62
   250
420
  1709851
370
    13
100
AcDb2dPolyline
 66
     1
 10
0.0
 20
0.0
 30
0.0
  0
VERTEX
  5
274
330
273
100
AcDbEntity
  8
Ebene 2
 62
   250
420
  1709851
370
    13
100
AcDbVertex
100
AcDb2dVertex
 10
446.070224171552
 20
182.5006086302625
 30
0.0
  0
VERTEX
  5
275
330
273
100
AcDbEntity
  8
Ebene 2
 62
   250
420
  1709851
370
    13
100
AcDbVertex
100
AcDb2dVertex
 10
453.285636915827
 20
195.0018348645781
 30
0.0
  0
VERTEX
  5
276
330
273
100
AcDbEntity
  8
Ebene 2
 62
   250
420
  1709851
370
    13
100
AcDbVertex
100
AcDb2dVertex
 10
446.070224171552
 20
207.5006495304631
 30
0.0
  0
VERTEX
  5
277
330
273
100
AcDbEntity
  8
Ebene 2
 62
   250
420
  1709851
370
    13
100
AcDbVertex
100
AcDb2dVertex
 10
431.6356090754684
 20
207.5006495304631
 30
0.0
  0
VERTEX
  5
278
330
273
100
AcDbEntity
  8
Ebene 2
 62
   250
420
  1709851
370
    13
100
AcDbVertex
100
AcDb2dVertex
 10
424.4205408409692
 20
195.0018348645781
 30
0.0
  0
VERTEX
  5
279
330
273
100
AcDbEntity
  8
Ebene 2
 62
   250
420
  1709851
370
    13
100
AcDbVertex
100
AcDb2dVertex
 10
431.6356090754684
 20
182.5006086302625
 30
0.0
  0
VERTEX
  5
27A
330
273
100
AcDbEntity
  8
Ebene 2
 62
   250
420
  1709851
370
    13
100
AcDbVertex
100
AcDb2dVertex
 10
446.070224171552
 20
182.5006086302625
 30
0.0
  0
SEQEND
  5
27B
330
273
100
AcDbEntity
  8
Ebene 2
370
    13
  0
POLYLINE
  5
27C
330
26F
100
AcDbEntity
  8
Ebene 2
 62
   250
420
  1709851
370
    13
100
AcDb2dPolyline
 66
     1
 10
0.0
 20
0.0
 30
0.0
  0
VERTEX
  5
27D
330
27C
100
AcDbEntity
  8
Ebene 2
 62
   250
420
  1709851
370
    13
100
AcDbVertex
100
AcDb2dVertex
 10
446.070224171552
 20
152.5006973539321
 30
0.0
  0
VERTEX
  5
27E
330
27C
100
AcDbEntity
  8
Ebene 2
 62
   250
420
  1709851
370
    13
100
AcDbVertex
100
AcDb2dVertex
 10
453.285636915827
 20
165.0019235882477
 30
0.0
  0
VERTEX
  5
27F
330
27C
100
AcDbEntity
  8
Ebene 2
 62
   250
420
  1709851
370
    13
100
AcDbVertex
100
AcDb2dVertex
 10
446.070224171552
 20
177.5007382541327
 30
0.0
  0
VERTEX
  5
280
330
27C
100
AcDbEntity
  8
Ebene 2
 62
   250
420
  1709851
370
    13
100
AcDbVertex
100
AcDb2dVertex
 10
431.6356090754684
 20
177.5007382541327
 30
0.0
  0
VERTEX
  5
281
330
27C
100
AcDbEntity
  8
Ebene 2
 62
   250
420
  1709851
370
    13
100
AcDbVertex
100
AcDb2dVertex
 10
424.4205408409692
 20
165.0019235882477
 30
0.0
  0
VERTEX
  5
282
330
27C
100
AcDbEntity
  8
Ebene 2
 62
   250
420
  1709851
370
    13
100
AcDbVertex
100
AcDb2dVertex
 10
431.6356090754684
 20
152.5006973539321
 30
0.0
  0
VERTEX
  5
283
330
27C
100
AcDbEntity
  8
Ebene 2
 62
   250
420
  1709851
370
    13
100
AcDbVertex
100
AcDb2dVertex
 10
446.070224171552
 20
152.5006973539321
 30
0.0
  0
SEQEND
  5
284
330
27C
100
AcDbEntity
  8
Ebene 2
370
    13
  0
POLYLINE
  5
285
330
26F
100
AcDbEntity
  8
Ebene 2
 62
   250
420
  1709851
370
    13
100
AcDb2dPolyline
 66
     1
 10
0.0
 20
0.0
 30
0.0
  0
VERTEX
  5
286
330
285
100
AcDbEntity
  8
Ebene 2
 62
   250
420
  1709851
370
    13
100
AcDbVertex
100
AcDb2dVertex
 10
446.070224171552
 20
122.5007860776017
 30
0.0
  0
VERTEX
  5
287
330
285
100
AcDbEntity
  8
Ebene 2
 62
   250
420
  1709851
370
    13
100
AcDbVertex
100
AcDb2dVertex
 10
453.285636915827
 20
135.0016678021415
 30
0.0
  0
VERTEX
  5
288
330
285
100
AcDbEntity
  8
Ebene 2
 62
   250
420
  1709851
370
    13
100
AcDbVertex
100
AcDb2dVertex
 10
446.070224171552
 20
147.5008269778023
 30
0.0
  0
VERTEX
  5
289
330
285
100
AcDbEntity
  8
Ebene 2
 62
   250
420
  1709851
370
    13
100
AcDbVertex
100
AcDb2dVertex
 10
431.6356090754684
 20
147.5008269778023
 30
0.0
  0
VERTEX
  5
28A
330
285
100
AcDbEntity
  8
Ebene 2
 62
   250
420
  1709851
370
    13
100
AcDbVertex
100
AcDb2dVertex
 10
424.4205408409692
 20
135.0016678021415
 30
0.0
  0
VERTEX
  5
28B
330
285
100
AcDbEntity
  8
Ebene 2
 62
   250
420
  1709851
370
    13
100
AcDbVertex
100
AcDb2dVertex
 10
431.6356090754684
 20
122.5007860776017
 30
0.0
  0
VERTEX
  5
28C
330
285
100
AcDbEntity
  8
Ebene 2
 62
   250
420
  1709851
370
    13
100
AcDbVertex
100
AcDb2dVertex
 10
446.070224171552
 20
122.5007860776017
 30
0.0
  0
SEQEND
  5
28D
330
285
100
AcDbEntity
  8
Ebene 2
370
    13
  0
POLYLINE
  5
28E
330
26F
100
AcDbEntity
  8
Ebene 2
 62
   250
420
  1709851
370
    13
100
AcDb2dPolyline
 66
     1
 10
0.0
 20
0.0
 30
0.0
  0
VERTEX
  5
28F
330
28E
100
AcDbEntity
  8
Ebene 2
 62
   250
420
  1709851
370
    13
100
AcDbVertex
100
AcDb2dVertex
 10
446.070224171552
 20
92.50087480127134
 30
0.0
  0
VERTEX
  5
290
330
28E
100
AcDbEntity
  8
Ebene 2
 62
   250
420
  1709851
370
    13
100
AcDbVertex
100
AcDb2dVertex
 10
453.285636915827
 20
105.0017565258111
 30
0.0
  0
VERTEX
  5
291
330
28E
100
AcDbEntity
  8
Ebene 2
 62
   250
420
  1709851
370
    13
100
AcDbVertex
100
AcDb2dVertex
 10
446.070224171552
 20
117.5009157014719
 30
0.0
  0
VERTEX
  5
292
330
28E
100
AcDbEntity
  8
Ebene 2
 62
   250
420
  1709851
370
    13
100
AcDbVertex
100
AcDb2dVertex
 10
431.6356090754684
 20
117.5009157014719
 30
0.0
  0
VERTEX
  5
293
330
28E
100
AcDbEntity
  8
Ebene 2
 62
   250
420
  1709851
370
    13
100
AcDbVertex
100
AcDb2dVertex
 10
424.4205408409692
 20
105.0017565258111
 30
0.0
  0
VERTEX
  5
294
330
28E
100
AcDbEntity
  8
Ebene 2
 62
   250
420
  1709851
370
    13
100
AcDbVertex
100
AcDb2dVertex
 10
431.6356090754684
 20
92.50087480127134
 30
0.0
  0
VERTEX
  5
295
330
28E
100
AcDbEntity
  8
Ebene 2
 62
   250
420
  1709851
370
    13
100
AcDbVertex
100
AcDb2dVertex
 10
446.070224171552
 20
92.50087480127134
 30
0.0
  0
SEQEND
  5
296
330
28E
100
AcDbEntity
  8
Ebene 2
370
    13
  0
POLYLINE
  5
297
330
26F
100
AcDbEntity
  8
Ebene 2
 62
   250
420
  1709851
370
    13
100
AcDb2dPolyline
 66
     1
 10
0.0
 20
0.0
 30
0.0
  0
VERTEX
  5
298
330
297
100
AcDbEntity
  8
Ebene 2
 62
   250
420
  1709851
370
    13
100
AcDbVertex
100
AcDb2dVertex
 10
446.070224171552
 20
62.50096352494095
 30
0.0
  0
VERTEX
  5
299
330
297
100
AcDbEntity
  8
Ebene 2
 62
   250
420
  1709851
370
    13
100
AcDbVertex
100
AcDb2dVertex
 10
453.285636915827
 20
75.00184524948074
 30
0.0
  0
VERTEX
  5
29A
330
297
100
AcDbEntity
  8
Ebene 2
 62
   250
420
  1709851
370
    13
100
AcDbVertex
100
AcDb2dVertex
 10
446.070224171552
 20
87.50100442514153
 30
0.0
  0
VERTEX
  5
29B
330
297
100
AcDbEntity
  8
Ebene 2
 62
   250
420
  1709851
370
    13
100
AcDbVertex
100
AcDb2dVertex
 10
431.6356090754684
 20
87.50100442514153
 30
0.0
  0
VERTEX
  5
29C
330
297
100
AcDbEntity
  8
Ebene 2
 62
   250
420
  1709851
370
    13
100
AcDbVertex
100
AcDb2dVertex
 10
424.4205408409692
 20
75.00184524948074
 30
0.0
  0
VERTEX
  5
29D
330
297
100
AcDbEntity
  8
Ebene 2
 62
   250
420
  1709851
370
    13
100
AcDbVertex
100
AcDb2dVertex
 10
431.6356090754684
 20
62.50096352494095
 30
0.0
  0
VERTEX
  5
29E
330
297
100
AcDbEntity
  8
Ebene 2
 62
   250
420
  1709851
370
    13
100
AcDbVertex
100
AcDb2dVertex
 10
446.070224171552
 20
62.50096352494095
 30
0.0
  0
SEQEND
  5
29F
330
297
100
AcDbEntity
  8
Ebene 2
370
    13
  0
POLYLINE
  5
2A0
330
26F
100
AcDbEntity
  8
Ebene 2
 62
   250
420
  1709851
370
    13
100
AcDb2dPolyline
 66
     1
 10
0.0
 20
0.0
 30
0.0
  0
VERTEX
  5
2A1
330
2A0
100
AcDbEntity
  8
Ebene 2
 62
   250
420
  1709851
370
    13
100
AcDbVertex
100
AcDb2dVertex
 10
446.070224171552
 20
32.50070773883477
 30
0.0
  0
VERTEX
  5
2A2
330
2A0
100
AcDbEntity
  8
Ebene 2
 62
   250
420
  1709851
370
    13
100
AcDbVertex
100
AcDb2dVertex
 10
453.285636915827
 20
45.00158946337456
 30
0.0
  0
VERTEX
  5
2A3
330
2A0
100
AcDbEntity
  8
Ebene 2
 62
   250
420
  1709851
370
    13
100
AcDbVertex
100
AcDb2dVertex
 10
446.070224171552
 20
57.50074863903536
 30
0.0
  0
VERTEX
  5
2A4
330
2A0
100
AcDbEntity
  8
Ebene 2
 62
   250
420
  1709851
370
    13
100
AcDbVertex
100
AcDb2dVertex
 10
431.6356090754684
 20
57.50074863903536
 30
0.0
  0
VERTEX
  5
2A5
330
2A0
100
AcDbEntity
  8
Ebene 2
 62
   250
420
  1709851
370
    13
100
AcDbVertex
100
AcDb2dVertex
 10
424.4205408409692
 20
45.00158946337456
 30
0.0
  0
VERTEX
  5
2A6
330
2A0
100
AcDbEntity
  8
Ebene 2
 62
   250
420
  1709851
370
    13
100
AcDbVertex
100
AcDb2dVertex
 10
431.6356090754684
 20
32.50070773883477
 30
0.0
  0
VERTEX
  5
2A7
330
2A0
100
AcDbEntity
  8
Ebene 2
 62
   250
420
  1709851
370
    13
100
AcDbVertex
100
AcDb2dVertex
 10
446.070224171552
 20
32.50070773883477
 30
0.0
  0
SEQEND
  5
2A8
330
2A0
100
AcDbEntity
  8
Ebene 2
370
    13
  0
POLYLINE
  5
2A9
330
26F
100
AcDbEntity
  8
Ebene 2
 62
   250
420
  1709851
370
    13
100
AcDb2dPolyline
 66
     1
 10
0.0
 20
0.0
 30
0.0
  0
VERTEX
  5
2AA
330
2A9
100
AcDbEntity
  8
Ebene 2
 62
   250
420
  1709851
370
    13
100
AcDbVertex
100
AcDb2dVertex
 10
446.070224171552
 20
212.5008644163687
 30
0.0
  0
VERTEX
  5
2AB
330
2A9
100
AcDbEntity
  8
Ebene 2
 62
   250
420
  1709851
370
    13
100
AcDbVertex
100
AcDb2dVertex
 10
453.285636915827
 20
225.0020906506842
 30
0.0
  0
VERTEX
  5
2AC
330
2A9
100
AcDbEntity
  8
Ebene 2
 62
   250
420
  1709851
370
    13
100
AcDbVertex
100
AcDb2dVertex
 10
446.070224171552
 20
237.5009053165693
 30
0.0
  0
VERTEX
  5
2AD
330
2A9
100
AcDbEntity
  8
Ebene 2
 62
   250
420
  1709851
370
    13
100
AcDbVertex
100
AcDb2dVertex
 10
431.6356090754684
 20
237.5009053165693
 30
0.0
  0
VERTEX
  5
2AE
330
2A9
100
AcDbEntity
  8
Ebene 2
 62
   250
420
  1709851
370
    13
100
AcDbVertex
100
AcDb2dVertex
 10
424.4205408409692
 20
225.0020906506842
 30
0.0
  0
VERTEX
  5
2AF
330
2A9
100
AcDbEntity
  8
Ebene 2
 62
   250
420
  1709851
370
    13
100
AcDbVertex
100
AcDb2dVertex
 10
431.6356090754684
 20
212.5008644163687
 30
0.0
  0
VERTEX
  5
2B0
330
2A9
100
AcDbEntity
  8
Ebene 2
 62
   250
420
  1709851
370
    13
100
AcDbVertex
100
AcDb2dVertex
 10
446.070224171552
 20
212.5008644163687
 30
0.0
  0
SEQEND
  5
2B1
330
2A9
100
AcDbEntity
  8
Ebene 2
370
    13
  0
POLYLINE
  5
2B2
330
26F
100
AcDbEntity
  8
Ebene 2
 62
   250
420
  1709851
370
    13
100
AcDb2dPolyline
 66
     1
 10
0.0
 20
0.0
 30
0.0
  0
VERTEX
  5
2B3
330
2B2
100
AcDbEntity
  8
Ebene 2
 62
   250
420
  1709851
370
    13
100
AcDbVertex
100
AcDb2dVertex
 10
446.070224171552
 20
242.5007756926991
 30
0.0
  0
VERTEX
  5
2B4
330
2B2
100
AcDbEntity
  8
Ebene 2
 62
   250
420
  1709851
370
    13
100
AcDbVertex
100
AcDb2dVertex
 10
453.285636915827
 20
255.0020019270146
 30
0.0
  0
VERTEX
  5
2B5
330
2B2
100
AcDbEntity
  8
Ebene 2
 62
   250
420
  1709851
370
    13
100
AcDbVertex
100
AcDb2dVertex
 10
446.070224171552
 20
267.5008165928996
 30
0.0
  0
VERTEX
  5
2B6
330
2B2
100
AcDbEntity
  8
Ebene 2
 62
   250
420
  1709851
370
    13
100
AcDbVertex
100
AcDb2dVertex
 10
431.6356090754684
 20
267.5008165928996
 30
0.0
  0
VERTEX
  5
2B7
330
2B2
100
AcDbEntity
  8
Ebene 2
 62
   250
420
  1709851
370
    13
100
AcDbVertex
100
AcDb2dVertex
 10
424.4205408409692
 20
255.0020019270146
 30
0.0
  0
VERTEX
  5
2B8
330
2B2
100
AcDbEntity
  8
Ebene 2
 62
   250
420
  1709851
370
    13
100
AcDbVertex
100
AcDb2dVertex
 10
431.6356090754684
 20
242.5007756926991
 30
0.0
  0
VERTEX
  5
2B9
330
2B2
100
AcDbEntity
  8
Ebene 2
 62
   250
420
  1709851
370
    13
100
AcDbVertex
100
AcDb2dVertex
 10
446.070224171552
 20
242.5007756926991
 30
0.0
  0
SEQEND
  5
2BA
330
2B2
100
AcDbEntity
  8
Ebene 2
370
    13
  0
ENDBLK
  5
272
330
26F
100
AcDbEntity
  8
0
100
AcDbBlockEnd
  0
BLOCK
  5
2BD
330
2BB
100
AcDbEntity
  8
0
100
AcDbBlockBegin
  2
block 6
 70
     0
 71
     0
 10
0.0
 20
0.0
 30
0.0
  3
block 6
  1

  0
POLYLINE
  5
2BF
330
2BB
100
AcDbEntity
  8
Ebene 2
 62
   250
420
  1709851
370
    13
100
AcDb2dPolyline
 66
     1
 10
0.0
 20
0.0
 30
0.0
  0
VERTEX
  5
2C0
330
2BF
100
AcDbEntity
  8
Ebene 2
 62
   250
420
  1709851
370
    13
100
AcDbVertex
100
AcDb2dVertex
 10
472.7197778782647
 20
167.5006529920973
 30
0.0
  0
VERTEX
  5
2C1
330
2BF
100
AcDbEntity
  8
Ebene 2
 62
   250
420
  1709851
370
    13
100
AcDbVertex
100
AcDb2dVertex
 10
479.9348461127639
 20
180.0018792264129
 30
0.0
  0
VERTEX
  5
2C2
330
2BF
100
AcDbEntity
  8
Ebene 2
 62
   250
420
  1709851
370
    13
100
AcDbVertex
100
AcDb2dVertex
 10
472.7197778782647
 20
192.5006938922979
 30
0.0
  0
VERTEX
  5
2C3
330
2BF
100
AcDbEntity
  8
Ebene 2
 62
   250
420
  1709851
370
    13
100
AcDbVertex
100
AcDb2dVertex
 10
458.285162782181
 20
192.5006938922979
 30
0.0
  0
VERTEX
  5
2C4
330
2BF
100
AcDbEntity
  8
Ebene 2
 62
   250
420
  1709851
370
    13
100
AcDbVertex
100
AcDb2dVertex
 10
451.0700945476818
 20
180.0018792264129
 30
0.0
  0
VERTEX
  5
2C5
330
2BF
100
AcDbEntity
  8
Ebene 2
 62
   250
420
  1709851
370
    13
100
AcDbVertex
100
AcDb2dVertex
 10
458.285162782181
 20
167.5006529920973
 30
0.0
  0
VERTEX
  5
2C6
330
2BF
100
AcDbEntity
  8
Ebene 2
 62
   250
420
  1709851
370
    13
100
AcDbVertex
100
AcDb2dVertex
 10
472.7197778782647
 20
167.5006529920973
 30
0.0
  0
SEQEND
  5
2C7
330
2BF
100
AcDbEntity
  8
Ebene 2
370
    13
  0
POLYLINE
  5
2C8
330
2BB
100
AcDbEntity
  8
Ebene 2
 62
   250
420
  1709851
370
    13
100
AcDb2dPolyline
 66
     1
 10
0.0
 20
0.0
 30
0.0
  0
VERTEX
  5
2C9
330
2C8
100
AcDbEntity
  8
Ebene 2
 62
   250
420
  1709851
370
    13
100
AcDbVertex
100
AcDb2dVertex
 10
472.7197778782647
 20
137.5007417157669
 30
0.0
  0
VERTEX
  5
2CA
330
2C8
100
AcDbEntity
  8
Ebene 2
 62
   250
420
  1709851
370
    13
100
AcDbVertex
100
AcDb2dVertex
 10
479.9348461127639
 20
150.0019679500825
 30
0.0
  0
VERTEX
  5
2CB
330
2C8
100
AcDbEntity
  8
Ebene 2
 62
   250
420
  1709851
370
    13
100
AcDbVertex
100
AcDb2dVertex
 10
472.7197778782647
 20
162.5007826159675
 30
0.0
  0
VERTEX
  5
2CC
330
2C8
100
AcDbEntity
  8
Ebene 2
 62
   250
420
  1709851
370
    13
100
AcDbVertex
100
AcDb2dVertex
 10
458.285162782181
 20
162.5007826159675
 30
0.0
  0
VERTEX
  5
2CD
330
2C8
100
AcDbEntity
  8
Ebene 2
 62
   250
420
  1709851
370
    13
100
AcDbVertex
100
AcDb2dVertex
 10
451.0700945476818
 20
150.0019679500825
 30
0.0
  0
VERTEX
  5
2CE
330
2C8
100
AcDbEntity
  8
Ebene 2
 62
   250
420
  1709851
370
    13
100
AcDbVertex
100
AcDb2dVertex
 10
458.285162782181
 20
137.5007417157669
 30
0.0
  0
VERTEX
  5
2CF
330
2C8
100
AcDbEntity
  8
Ebene 2
 62
   250
420
  1709851
370
    13
100
AcDbVertex
100
AcDb2dVertex
 10
472.7197778782647
 20
137.5007417157669
 30
0.0
  0
SEQEND
  5
2D0
330
2C8
100
AcDbEntity
  8
Ebene 2
370
    13
  0
POLYLINE
  5
2D1
330
2BB
100
AcDbEntity
  8
Ebene 2
 62
   250
420
  1709851
370
    13
100
AcDb2dPolyline
 66
     1
 10
0.0
 20
0.0
 30
0.0
  0
VERTEX
  5
2D2
330
2D1
100
AcDbEntity
  8
Ebene 2
 62
   250
420
  1709851
370
    13
100
AcDbVertex
100
AcDb2dVertex
 10
472.7197778782647
 20
107.5008304394365
 30
0.0
  0
VERTEX
  5
2D3
330
2D1
100
AcDbEntity
  8
Ebene 2
 62
   250
420
  1709851
370
    13
100
AcDbVertex
100
AcDb2dVertex
 10
479.9348461127639
 20
120.0017121639763
 30
0.0
  0
VERTEX
  5
2D4
330
2D1
100
AcDbEntity
  8
Ebene 2
 62
   250
420
  1709851
370
    13
100
AcDbVertex
100
AcDb2dVertex
 10
472.7197778782647
 20
132.5008713396371
 30
0.0
  0
VERTEX
  5
2D5
330
2D1
100
AcDbEntity
  8
Ebene 2
 62
   250
420
  1709851
370
    13
100
AcDbVertex
100
AcDb2dVertex
 10
458.285162782181
 20
132.5008713396371
 30
0.0
  0
VERTEX
  5
2D6
330
2D1
100
AcDbEntity
  8
Ebene 2
 62
   250
420
  1709851
370
    13
100
AcDbVertex
100
AcDb2dVertex
 10
451.0700945476818
 20
120.0017121639763
 30
0.0
  0
VERTEX
  5
2D7
330
2D1
100
AcDbEntity
  8
Ebene 2
 62
   250
420
  1709851
370
    13
100
AcDbVertex
100
AcDb2dVertex
 10
458.285162782181
 20
107.5008304394365
 30
0.0
  0
VERTEX
  5
2D8
330
2D1
100
AcDbEntity
  8
Ebene 2
 62
   250
420
  1709851
370
    13
100
AcDbVertex
100
AcDb2dVertex
 10
472.7197778782647
 20
107.5008304394365
 30
0.0
  0
SEQEND
  5
2D9
330
2D1
100
AcDbEntity
  8
Ebene 2
370
    13
  0
POLYLINE
  5
2DA
330
2BB
100
AcDbEntity
  8
Ebene 2
 62
   250
420
  1709851
370
    13
100
AcDb2dPolyline
 66
     1
 10
0.0
 20
0.0
 30
0.0
  0
VERTEX
  5
2DB
330
2DA
100
AcDbEntity
  8
Ebene 2
 62
   250
420
  1709851
370
    13
100
AcDbVertex
100
AcDb2dVertex
 10
472.7197778782647
 20
77.50091916310615
 30
0.0
  0
VERTEX
  5
2DC
330
2DA
100
AcDbEntity
  8
Ebene 2
 62
   250
420
  1709851
370
    13
100
AcDbVertex
100
AcDb2dVertex
 10
479.9348461127639
 20
90.00180088764593
 30
0.0
  0
VERTEX
  5
2DD
330
2DA
100
AcDbEntity
  8
Ebene 2
 62
   250
420
  1709851
370
    13
100
AcDbVertex
100
AcDb2dVertex
 10
472.7197778782647
 20
102.5009600633067
 30
0.0
  0
VERTEX
  5
2DE
330
2DA
100
AcDbEntity
  8
Ebene 2
 62
   250
420
  1709851
370
    13
100
AcDbVertex
100
AcDb2dVertex
 10
458.285162782181
 20
102.5009600633067
 30
0.0
  0
VERTEX
  5
2DF
330
2DA
100
AcDbEntity
  8
Ebene 2
 62
   250
420
  1709851
370
    13
100
AcDbVertex
100
AcDb2dVertex
 10
451.0700945476818
 20
90.00180088764593
 30
0.0
  0
VERTEX
  5
2E0
330
2DA
100
AcDbEntity
  8
Ebene 2
 62
   250
420
  1709851
370
    13
100
AcDbVertex
100
AcDb2dVertex
 10
458.285162782181
 20
77.50091916310615
 30
0.0
  0
VERTEX
  5
2E1
330
2DA
100
AcDbEntity
  8
Ebene 2
 62
   250
420
  1709851
370
    13
100
AcDbVertex
100
AcDb2dVertex
 10
472.7197778782647
 20
77.50091916310615
 30
0.0
  0
SEQEND
  5
2E2
330
2DA
100
AcDbEntity
  8
Ebene 2
370
    13
  0
POLYLINE
  5
2E3
330
2BB
100
AcDbEntity
  8
Ebene 2
 62
   250
420
  1709851
370
    13
100
AcDb2dPolyline
 66
     1
 10
0.0
 20
0.0
 30
0.0
  0
VERTEX
  5
2E4
330
2E3
100
AcDbEntity
  8
Ebene 2
 62
   250
420
  1709851
370
    13
100
AcDbVertex
100
AcDb2dVertex
 10
472.7197778782647
 20
47.50100788677576
 30
0.0
  0
VERTEX
  5
2E5
330
2E3
100
AcDbEntity
  8
Ebene 2
 62
   250
420
  1709851
370
    13
100
AcDbVertex
100
AcDb2dVertex
 10
479.9348461127639
 20
60.00188961131554
 30
0.0
  0
VERTEX
  5
2E6
330
2E3
100
AcDbEntity
  8
Ebene 2
 62
   250
420
  1709851
370
    13
100
AcDbVertex
100
AcDb2dVertex
 10
472.7197778782647
 20
72.50104878697634
 30
0.0
  0
VERTEX
  5
2E7
330
2E3
100
AcDbEntity
  8
Ebene 2
 62
   250
420
  1709851
370
    13
100
AcDbVertex
100
AcDb2dVertex
 10
458.285162782181
 20
72.50104878697634
 30
0.0
  0
VERTEX
  5
2E8
330
2E3
100
AcDbEntity
  8
Ebene 2
 62
   250
420
  1709851
370
    13
100
AcDbVertex
100
AcDb2dVertex
 10
451.0700945476818
 20
60.00188961131554
 30
0.0
  0
VERTEX
  5
2E9
330
2E3
100
AcDbEntity
  8
Ebene 2
 62
   250
420
  1709851
370
    13
100
AcDbVertex
100
AcDb2dVertex
 10
458.285162782181
 20
47.50100788677576
 30
0.0
  0
VERTEX
  5
2EA
330
2E3
100
AcDbEntity
  8
Ebene 2
 62
   250
420
  1709851
370
    13
100
AcDbVertex
100
AcDb2dVertex
 10
472.7197778782647
 20
47.50100788677576
 30
0.0
  0
SEQEND
  5
2EB
330
2E3
100
AcDbEntity
  8
Ebene 2
370
    13
  0
POLYLINE
  5
2EC
330
2BB
100
AcDbEntity
  8
Ebene 2
 62
   250
420
  1709851
370
    13
100
AcDb2dPolyline
 66
     1
 10
0.0
 20
0.0
 30
0.0
  0
VERTEX
  5
2ED
330
2EC
100
AcDbEntity
  8
Ebene 2
 62
   250
420
  1709851
370
    13
100
AcDbVertex
100
AcDb2dVertex
 10
472.7197778782647
 20
17.50075210066958
 30
0.0
  0
VERTEX
  5
2EE
330
2EC
100
AcDbEntity
  8
Ebene 2
 62
   250
420
  1709851
370
    13
100
AcDbVertex
100
AcDb2dVertex
 10
479.9348461127639
 20
30.00163382520936
 30
0.0
  0
VERTEX
  5
2EF
330
2EC
100
AcDbEntity
  8
Ebene 2
 62
   250
420
  1709851
370
    13
100
AcDbVertex
100
AcDb2dVertex
 10
472.7197778782647
 20
42.50079300087017
 30
0.0
  0
VERTEX
  5
2F0
330
2EC
100
AcDbEntity
  8
Ebene 2
 62
   250
420
  1709851
370
    13
100
AcDbVertex
100
AcDb2dVertex
 10
458.285162782181
 20
42.50079300087017
 30
0.0
  0
VERTEX
  5
2F1
330
2EC
100
AcDbEntity
  8
Ebene 2
 62
   250
420
  1709851
370
    13
100
AcDbVertex
100
AcDb2dVertex
 10
451.0700945476818
 20
30.00163382520936
 30
0.0
  0
VERTEX
  5
2F2
330
2EC
100
AcDbEntity
  8
Ebene 2
 62
   250
420
  1709851
370
    13
100
AcDbVertex
100
AcDb2dVertex
 10
458.285162782181
 20
17.50075210066958
 30
0.0
  0
VERTEX
  5
2F3
330
2EC
100
AcDbEntity
  8
Ebene 2
 62
   250
420
  1709851
370
    13
100
AcDbVertex
100
AcDb2dVertex
 10
472.7197778782647
 20
17.50075210066958
 30
0.0
  0
SEQEND
  5
2F4
330
2EC
100
AcDbEntity
  8
Ebene 2
370
    13
  0
POLYLINE
  5
2F5
330
2BB
100
AcDbEntity
  8
Ebene 2
 62
   250
420
  1709851
370
    13
100
AcDb2dPolyline
 66
     1
 10
0.0
 20
0.0
 30
0.0
  0
VERTEX
  5
2F6
330
2F5
100
AcDbEntity
  8
Ebene 2
 62
   250
420
  1709851
370
    13
100
AcDbVertex
100
AcDb2dVertex
 10
472.7197778782647
 20
197.5009087782035
 30
0.0
  0
VERTEX
  5
2F7
330
2F5
100
AcDbEntity
  8
Ebene 2
 62
   250
420
  1709851
370
    13
100
AcDbVertex
100
AcDb2dVertex
 10
479.9348461127639
 20
210.0021350125191
 30
0.0
  0
VERTEX
  5
2F8
330
2F5
100
AcDbEntity
  8
Ebene 2
 62
   250
420
  1709851
370
    13
100
AcDbVertex
100
AcDb2dVertex
 10
472.7197778782647
 20
222.5009496784041
 30
0.0
  0
VERTEX
  5
2F9
330
2F5
100
AcDbEntity
  8
Ebene 2
 62
   250
420
  1709851
370
    13
100
AcDbVertex
100
AcDb2dVertex
 10
458.285162782181
 20
222.5009496784041
 30
0.0
  0
VERTEX
  5
2FA
330
2F5
100
AcDbEntity
  8
Ebene 2
 62
   250
420
  1709851
370
    13
100
AcDbVertex
100
AcDb2dVertex
 10
451.0700945476818
 20
210.0021350125191
 30
0.0
  0
VERTEX
  5
2FB
330
2F5
100
AcDbEntity
  8
Ebene 2
 62
   250
420
  1709851
370
    13
100
AcDbVertex
100
AcDb2dVertex
 10
458.285162782181
 20
197.5009087782035
 30
0.0
  0
VERTEX
  5
2FC
330
2F5
100
AcDbEntity
  8
Ebene 2
 62
   250
420
  1709851
370
    13
100
AcDbVertex
100
AcDb2dVertex
 10
472.7197778782647
 20
197.5009087782035
 30
0.0
  0
SEQEND
  5
2FD
330
2F5
100
AcDbEntity
  8
Ebene 2
370
    13
  0
POLYLINE
  5
2FE
330
2BB
100
AcDbEntity
  8
Ebene 2
 62
   250
420
  1709851
370
    13
100
AcDb2dPolyline
 66
     1
 10
0.0
 20
0.0
 30
0.0
  0
VERTEX
  5
2FF
330
2FE
100
AcDbEntity
  8
Ebene 2
 62
   250
420
  1709851
370
    13
100
AcDbVertex
100
AcDb2dVertex
 10
472.7197778782647
 20
227.5008200545338
 30
0.0
  0
VERTEX
  5
300
330
2FE
100
AcDbEntity
  8
Ebene 2
 62
   250
420
  1709851
370
    13
100
AcDbVertex
100
AcDb2dVertex
 10
479.9348461127639
 20
240.0020462888494
 30
0.0
  0
VERTEX
  5
301
330
2FE
100
AcDbEntity
  8
Ebene 2
 62
   250
420
  1709851
370
    13
100
AcDbVertex
100
AcDb2dVertex
 10
472.7197778782647
 20
252.5008609547344
 30
0.0
  0
VERTEX
  5
302
330
2FE
100
AcDbEntity
  8
Ebene 2
 62
   250
420
  1709851
370
    13
100
AcDbVertex
100
AcDb2dVertex
 10
458.285162782181
 20
252.5008609547344
 30
0.0
  0
VERTEX
  5
303
330
2FE
100
AcDbEntity
  8
Ebene 2
 62
   250
420
  1709851
370
    13
100
AcDbVertex
100
AcDb2dVertex
 10
451.0700945476818
 20
240.0020462888494
 30
0.0
  0
VERTEX
  5
304
330
2FE
100
AcDbEntity
  8
Ebene 2
 62
   250
420
  1709851
370
    13
100
AcDbVertex
100
AcDb2dVertex
 10
458.285162782181
 20
227.5008200545338
 30
0.0
  0
VERTEX
  5
305
330
2FE
100
AcDbEntity
  8
Ebene 2
 62
   250
420
  1709851
370
    13
100
AcDbVertex
100
AcDb2dVertex
 10
472.7197778782647
 20
227.5008200545338
 30
0.0
  0
SEQEND
  5
306
330
2FE
100
AcDbEntity
  8
Ebene 2
370
    13
  0
ENDBLK
  5
2BE
330
2BB
100
AcDbEntity
  8
0
100
AcDbBlockEnd
  0
BLOCK
  5
309
330
307
100
AcDbEntity
  8
0
100
AcDbBlockBegin
  2
block 7
 70
     0
 71
     0
 10
0.0
 20
0.0
 30
0.0
  3
block 7
  1

  0
POLYLINE
  5
30B
330
307
100
AcDbEntity
  8
Ebene 2
 62
   250
420
  1709851
370
    13
100
AcDb2dPolyline
 66
     1
 10
0.0
 20
0.0
 30
0.0
  0
VERTEX
  5
30C
330
30B
100
AcDbEntity
  8
Ebene 2
 62
   250
420
  1709851
370
    13
100
AcDbVertex
100
AcDb2dVertex
 10
499.3693315849773
 20
182.5006086302625
 30
0.0
  0
VERTEX
  5
30D
330
30B
100
AcDbEntity
  8
Ebene 2
 62
   250
420
  1709851
370
    13
100
AcDbVertex
100
AcDb2dVertex
 10
506.5847443292523
 20
195.0018348645781
 30
0.0
  0
VERTEX
  5
30E
330
30B
100
AcDbEntity
  8
Ebene 2
 62
   250
420
  1709851
370
    13
100
AcDbVertex
100
AcDb2dVertex
 10
499.3693315849773
 20
207.5006495304631
 30
0.0
  0
VERTEX
  5
30F
330
30B
100
AcDbEntity
  8
Ebene 2
 62
   250
420
  1709851
370
    13
100
AcDbVertex
100
AcDb2dVertex
 10
484.9347164888936
 20
207.5006495304631
 30
0.0
  0
VERTEX
  5
310
330
30B
100
AcDbEntity
  8
Ebene 2
 62
   250
420
  1709851
370
    13
100
AcDbVertex
100
AcDb2dVertex
 10
477.7196482543945
 20
195.0018348645781
 30
0.0
  0
VERTEX
  5
311
330
30B
100
AcDbEntity
  8
Ebene 2
 62
   250
420
  1709851
370
    13
100
AcDbVertex
100
AcDb2dVertex
 10
484.9347164888936
 20
182.5006086302625
 30
0.0
  0
VERTEX
  5
312
330
30B
100
AcDbEntity
  8
Ebene 2
 62
   250
420
  1709851
370
    13
100
AcDbVertex
100
AcDb2dVertex
 10
499.3693315849773
 20
182.5006086302625
 30
0.0
  0
SEQEND
  5
313
330
30B
100
AcDbEntity
  8
Ebene 2
370
    13
  0
POLYLINE
  5
314
330
307
100
AcDbEntity
  8
Ebene 2
 62
   250
420
  1709851
370
    13
100
AcDb2dPolyline
 66
     1
 10
0.0
 20
0.0
 30
0.0
  0
VERTEX
  5
315
330
314
100
AcDbEntity
  8
Ebene 2
 62
   250
420
  1709851
370
    13
100
AcDbVertex
100
AcDb2dVertex
 10
499.3693315849773
 20
152.5006973539321
 30
0.0
  0
VERTEX
  5
316
330
314
100
AcDbEntity
  8
Ebene 2
 62
   250
420
  1709851
370
    13
100
AcDbVertex
100
AcDb2dVertex
 10
506.5847443292523
 20
165.0019235882477
 30
0.0
  0
VERTEX
  5
317
330
314
100
AcDbEntity
  8
Ebene 2
 62
   250
420
  1709851
370
    13
100
AcDbVertex
100
AcDb2dVertex
 10
499.3693315849773
 20
177.5007382541327
 30
0.0
  0
VERTEX
  5
318
330
314
100
AcDbEntity
  8
Ebene 2
 62
   250
420
  1709851
370
    13
100
AcDbVertex
100
AcDb2dVertex
 10
484.9347164888936
 20
177.5007382541327
 30
0.0
  0
VERTEX
  5
319
330
314
100
AcDbEntity
  8
Ebene 2
 62
   250
420
  1709851
370
    13
100
AcDbVertex
100
AcDb2dVertex
 10
477.7196482543945
 20
165.0019235882477
 30
0.0
  0
VERTEX
  5
31A
330
314
100
AcDbEntity
  8
Ebene 2
 62
   250
420
  1709851
370
    13
100
AcDbVertex
100
AcDb2dVertex
 10
484.9347164888936
 20
152.5006973539321
 30
0.0
  0
VERTEX
  5
31B
330
314
100
AcDbEntity
  8
Ebene 2
 62
   250
420
  1709851
370
    13
100
AcDbVertex
100
AcDb2dVertex
 10
499.3693315849773
 20
152.5006973539321
 30
0.0
  0
SEQEND
  5
31C
330
314
100
AcDbEntity
  8
Ebene 2
370
    13
  0
POLYLINE
  5
31D
330
307
100
AcDbEntity
  8
Ebene 2
 62
   250
420
  1709851
370
    13
100
AcDb2dPolyline
 66
     1
 10
0.0
 20
0.0
 30
0.0
  0
VERTEX
  5
31E
330
31D
100
AcDbEntity
  8
Ebene 2
 62
   250
420
  1709851
370
    13
100
AcDbVertex
100
AcDb2dVertex
 10
499.3693315849773
 20
122.5007860776017
 30
0.0
  0
VERTEX
  5
31F
330
31D
100
AcDbEntity
  8
Ebene 2
 62
   250
420
  1709851
370
    13
100
AcDbVertex
100
AcDb2dVertex
 10
506.5847443292523
 20
135.0016678021415
 30
0.0
  0
VERTEX
  5
320
330
31D
100
AcDbEntity
  8
Ebene 2
 62
   250
420
  1709851
370
    13
100
AcDbVertex
100
AcDb2dVertex
 10
499.3693315849773
 20
147.5008269778023
 30
0.0
  0
VERTEX
  5
321
330
31D
100
AcDbEntity
  8
Ebene 2
 62
   250
420
  1709851
370
    13
100
AcDbVertex
100
AcDb2dVertex
 10
484.9347164888936
 20
147.5008269778023
 30
0.0
  0
VERTEX
  5
322
330
31D
100
AcDbEntity
  8
Ebene 2
 62
   250
420
  1709851
370
    13
100
AcDbVertex
100
AcDb2dVertex
 10
477.7196482543945
 20
135.0016678021415
 30
0.0
  0
VERTEX
  5
323
330
31D
100
AcDbEntity
  8
Ebene 2
 62
   250
420
  1709851
370
    13
100
AcDbVertex
100
AcDb2dVertex
 10
484.9347164888936
 20
122.5007860776017
 30
0.0
  0
VERTEX
  5
324
330
31D
100
AcDbEntity
  8
Ebene 2
 62
   250
420
  1709851
370
    13
100
AcDbVertex
100
AcDb2dVertex
 10
499.3693315849773
 20
122.5007860776017
 30
0.0
  0
SEQEND
  5
325
330
31D
100
AcDbEntity
  8
Ebene 2
370
    13
  0
POLYLINE
  5
326
330
307
100
AcDbEntity
  8
Ebene 2
 62
   250
420
  1709851
370
    13
100
AcDb2dPolyline
 66
     1
 10
0.0
 20
0.0
 30
0.0
  0
VERTEX
  5
327
330
326
100
AcDbEntity
  8
Ebene 2
 62
   250
420
  1709851
370
    13
100
AcDbVertex
100
AcDb2dVertex
 10
499.3693315849773
 20
92.50087480127134
 30
0.0
  0
VERTEX
  5
328
330
326
100
AcDbEntity
  8
Ebene 2
 62
   250
420
  1709851
370
    13
100
AcDbVertex
100
AcDb2dVertex
 10
506.5847443292523
 20
105.0017565258111
 30
0.0
  0
VERTEX
  5
329
330
326
100
AcDbEntity
  8
Ebene 2
 62
   250
420
  1709851
370
    13
100
AcDbVertex
100
AcDb2dVertex
 10
499.3693315849773
 20
117.5009157014719
 30
0.0
  0
VERTEX
  5
32A
330
326
100
AcDbEntity
  8
Ebene 2
 62
   250
420
  1709851
370
    13
100
AcDbVertex
100
AcDb2dVertex
 10
484.9347164888936
 20
117.5009157014719
 30
0.0
  0
VERTEX
  5
32B
330
326
100
AcDbEntity
  8
Ebene 2
 62
   250
420
  1709851
370
    13
100
AcDbVertex
100
AcDb2dVertex
 10
477.7196482543945
 20
105.0017565258111
 30
0.0
  0
VERTEX
  5
32C
330
326
100
AcDbEntity
  8
Ebene 2
 62
   250
420
  1709851
370
    13
100
AcDbVertex
100
AcDb2dVertex
 10
484.9347164888936
 20
92.50087480127134
 30
0.0
  0
VERTEX
  5
32D
330
326
100
AcDbEntity
  8
Ebene 2
 62
   250
420
  1709851
370
    13
100
AcDbVertex
100
AcDb2dVertex
 10
499.3693315849773
 20
92.50087480127134
 30
0.0
  0
SEQEND
  5
32E
330
326
100
AcDbEntity
  8
Ebene 2
370
    13
  0
POLYLINE
  5
32F
330
307
100
AcDbEntity
  8
Ebene 2
 62
   250
420
  1709851
370
    13
100
AcDb2dPolyline
 66
     1
 10
0.0
 20
0.0
 30
0.0
  0
VERTEX
  5
330
330
32F
100
AcDbEntity
  8
Ebene 2
 62
   250
420
  1709851
370
    13
100
AcDbVertex
100
AcDb2dVertex
 10
499.3693315849773
 20
62.50096352494095
 30
0.0
  0
VERTEX
  5
331
330
32F
100
AcDbEntity
  8
Ebene 2
 62
   250
420
  1709851
370
    13
100
AcDbVertex
100
AcDb2dVertex
 10
506.5847443292523
 20
75.00184524948074
 30
0.0
  0
VERTEX
  5
332
330
32F
100
AcDbEntity
  8
Ebene 2
 62
   250
420
  1709851
370
    13
100
AcDbVertex
100
AcDb2dVertex
 10
499.3693315849773
 20
87.50100442514153
 30
0.0
  0
VERTEX
  5
333
330
32F
100
AcDbEntity
  8
Ebene 2
 62
   250
420
  1709851
370
    13
100
AcDbVertex
100
AcDb2dVertex
 10
484.9347164888936
 20
87.50100442514153
 30
0.0
  0
VERTEX
  5
334
330
32F
100
AcDbEntity
  8
Ebene 2
 62
   250
420
  1709851
370
    13
100
AcDbVertex
100
AcDb2dVertex
 10
477.7196482543945
 20
75.00184524948074
 30
0.0
  0
VERTEX
  5
335
330
32F
100
AcDbEntity
  8
Ebene 2
 62
   250
420
  1709851
370
    13
100
AcDbVertex
100
AcDb2dVertex
 10
484.9347164888936
 20
62.50096352494095
 30
0.0
  0
VERTEX
  5
336
330
32F
100
AcDbEntity
  8
Ebene 2
 62
   250
420
  1709851
370
    13
100
AcDbVertex
100
AcDb2dVertex
 10
499.3693315849773
 20
62.50096352494095
 30
0.0
  0
SEQEND
  5
337
330
32F
100
AcDbEntity
  8
Ebene 2
370
    13
  0
POLYLINE
  5
338
330
307
100
AcDbEntity
  8
Ebene 2
 62
   250
420
  1709851
370
    13
100
AcDb2dPolyline
 66
     1
 10
0.0
 20
0.0
 30
0.0
  0
VERTEX
  5
339
330
338
100
AcDbEntity
  8
Ebene 2
 62
   250
420
  1709851
370
    13
100
AcDbVertex
100
AcDb2dVertex
 10
499.3693315849773
 20
32.50070773883477
 30
0.0
  0
VERTEX
  5
33A
330
338
100
AcDbEntity
  8
Ebene 2
 62
   250
420
  1709851
370
    13
100
AcDbVertex
100
AcDb2dVertex
 10
506.5847443292523
 20
45.00158946337456
 30
0.0
  0
VERTEX
  5
33B
330
338
100
AcDbEntity
  8
Ebene 2
 62
   250
420
  1709851
370
    13
100
AcDbVertex
100
AcDb2dVertex
 10
499.3693315849773
 20
57.50074863903536
 30
0.0
  0
VERTEX
  5
33C
330
338
100
AcDbEntity
  8
Ebene 2
 62
   250
420
  1709851
370
    13
100
AcDbVertex
100
AcDb2dVertex
 10
484.9347164888936
 20
57.50074863903536
 30
0.0
  0
VERTEX
  5
33D
330
338
100
AcDbEntity
  8
Ebene 2
 62
   250
420
  1709851
370
    13
100
AcDbVertex
100
AcDb2dVertex
 10
477.7196482543945
 20
45.00158946337456
 30
0.0
  0
VERTEX
  5
33E
330
338
100
AcDbEntity
  8
Ebene 2
 62
   250
420
  1709851
370
    13
100
AcDbVertex
100
AcDb2dVertex
 10
484.9347164888936
 20
32.50070773883477
 30
0.0
  0
VERTEX
  5
33F
330
338
100
AcDbEntity
  8
Ebene 2
 62
   250
420
  1709851
370
    13
100
AcDbVertex
100
AcDb2dVertex
 10
499.3693315849773
 20
32.50070773883477
 30
0.0
  0
SEQEND
  5
340
330
338
100
AcDbEntity
  8
Ebene 2
370
    13
  0
POLYLINE
  5
341
330
307
100
AcDbEntity
  8
Ebene 2
 62
   250
420
  1709851
370
    13
100
AcDb2dPolyline
 66
     1
 10
0.0
 20
0.0
 30
0.0
  0
VERTEX
  5
342
330
341
100
AcDbEntity
  8
Ebene 2
 62
   250
420
  1709851
370
    13
100
AcDbVertex
100
AcDb2dVertex
 10
499.3693315849773
 20
212.5008644163687
 30
0.0
  0
VERTEX
  5
343
330
341
100
AcDbEntity
  8
Ebene 2
 62
   250
420
  1709851
370
    13
100
AcDbVertex
100
AcDb2dVertex
 10
506.5847443292523
 20
225.0020906506842
 30
0.0
  0
VERTEX
  5
344
330
341
100
AcDbEntity
  8
Ebene 2
 62
   250
420
  1709851
370
    13
100
AcDbVertex
100
AcDb2dVertex
 10
499.3693315849773
 20
237.5009053165693
 30
0.0
  0
VERTEX
  5
345
330
341
100
AcDbEntity
  8
Ebene 2
 62
   250
420
  1709851
370
    13
100
AcDbVertex
100
AcDb2dVertex
 10
484.9347164888936
 20
237.5009053165693
 30
0.0
  0
VERTEX
  5
346
330
341
100
AcDbEntity
  8
Ebene 2
 62
   250
420
  1709851
370
    13
100
AcDbVertex
100
AcDb2dVertex
 10
477.7196482543945
 20
225.0020906506842
 30
0.0
  0
VERTEX
  5
347
330
341
100
AcDbEntity
  8
Ebene 2
 62
   250
420
  1709851
370
    13
100
AcDbVertex
100
AcDb2dVertex
 10
484.9347164888936
 20
212.5008644163687
 30
0.0
  0
VERTEX
  5
348
330
341
100
AcDbEntity
  8
Ebene 2
 62
   250
420
  1709851
370
    13
100
AcDbVertex
100
AcDb2dVertex
 10
499.3693315849773
 20
212.5008644163687
 30
0.0
  0
SEQEND
  5
349
330
341
100
AcDbEntity
  8
Ebene 2
370
    13
  0
POLYLINE
  5
34A
330
307
100
AcDbEntity
  8
Ebene 2
 62
   250
420
  1709851
370
    13
100
AcDb2dPolyline
 66
     1
 10
0.0
 20
0.0
 30
0.0
  0
VERTEX
  5
34B
330
34A
100
AcDbEntity
  8
Ebene 2
 62
   250
420
  1709851
370
    13
100
AcDbVertex
100
AcDb2dVertex
 10
499.3693315849773
 20
242.5007756926991
 30
0.0
  0
VERTEX
  5
34C
330
34A
100
AcDbEntity
  8
Ebene 2
 62
   250
420
  1709851
370
    13
100
AcDbVertex
100
AcDb2dVertex
 10
506.5847443292523
 20
255.0020019270146
 30
0.0
  0
VERTEX
  5
34D
330
34A
100
AcDbEntity
  8
Ebene 2
 62
   250
420
  1709851
370
    13
100
AcDbVertex
100
AcDb2dVertex
 10
499.3693315849773
 20
267.5008165928996
 30
0.0
  0
VERTEX
  5
34E
330
34A
100
AcDbEntity
  8
Ebene 2
 62
   250
420
  1709851
370
    13
100
AcDbVertex
100
AcDb2dVertex
 10
484.9347164888936
 20
267.5008165928996
 30
0.0
  0
VERTEX
  5
34F
330
34A
100
AcDbEntity
  8
Ebene 2
 62
   250
420
  1709851
370
    13
100
AcDbVertex
100
AcDb2dVertex
 10
477.7196482543945
 20
255.0020019270146
 30
0.0
  0
VERTEX
  5
350
330
34A
100
AcDbEntity
  8
Ebene 2
 62
   250
420
  1709851
370
    13
100
AcDbVertex
100
AcDb2dVertex
 10
484.9347164888936
 20
242.5007756926991
 30
0.0
  0
VERTEX
  5
351
330
34A
100
AcDbEntity
  8
Ebene 2
 62
   250
420
  1709851
370
    13
100
AcDbVertex
100
AcDb2dVertex
 10
499.3693315849773
 20
242.5007756926991
 30
0.0
  0
SEQEND
  5
352
330
34A
100
AcDbEntity
  8
Ebene 2
370
    13
  0
ENDBLK
  5
30A
330
307
100
AcDbEntity
  8
0
100
AcDbBlockEnd
  0
BLOCK
  5
355
330
353
100
AcDbEntity
  8
0
100
AcDbBlockBegin
  2
block 8
 70
     0
 71
     0
 10
0.0
 20
0.0
 30
0.0
  3
block 8
  1

  0
POLYLINE
  5
357
330
353
100
AcDbEntity
  8
Ebene 2
 62
   250
420
  1709851
370
    13
100
AcDb2dPolyline
 66
     1
 10
0.0
 20
0.0
 30
0.0
  0
VERTEX
  5
358
330
357
100
AcDbEntity
  8
Ebene 2
 62
   250
420
  1709851
370
    13
100
AcDbVertex
100
AcDb2dVertex
 10
526.0188852916899
 20
167.5006529920973
 30
0.0
  0
VERTEX
  5
359
330
357
100
AcDbEntity
  8
Ebene 2
 62
   250
420
  1709851
370
    13
100
AcDbVertex
100
AcDb2dVertex
 10
533.2339535261891
 20
180.0018792264129
 30
0.0
  0
VERTEX
  5
35A
330
357
100
AcDbEntity
  8
Ebene 2
 62
   250
420
  1709851
370
    13
100
AcDbVertex
100
AcDb2dVertex
 10
526.0188852916899
 20
192.5006938922979
 30
0.0
  0
VERTEX
  5
35B
330
357
100
AcDbEntity
  8
Ebene 2
 62
   250
420
  1709851
370
    13
100
AcDbVertex
100
AcDb2dVertex
 10
511.5842701956063
 20
192.5006938922979
 30
0.0
  0
VERTEX
  5
35C
330
357
100
AcDbEntity
  8
Ebene 2
 62
   250
420
  1709851
370
    13
100
AcDbVertex
100
AcDb2dVertex
 10
504.3692019611071
 20
180.0018792264129
 30
0.0
  0
VERTEX
  5
35D
330
357
100
AcDbEntity
  8
Ebene 2
 62
   250
420
  1709851
370
    13
100
AcDbVertex
100
AcDb2dVertex
 10
511.5842701956063
 20
167.5006529920973
 30
0.0
  0
VERTEX
  5
35E
330
357
100
AcDbEntity
  8
Ebene 2
 62
   250
420
  1709851
370
    13
100
AcDbVertex
100
AcDb2dVertex
 10
526.0188852916899
 20
167.5006529920973
 30
0.0
  0
SEQEND
  5
35F
330
357
100
AcDbEntity
  8
Ebene 2
370
    13
  0
POLYLINE
  5
360
330
353
100
AcDbEntity
  8
Ebene 2
 62
   250
420
  1709851
370
    13
100
AcDb2dPolyline
 66
     1
 10
0.0
 20
0.0
 30
0.0
  0
VERTEX
  5
361
330
360
100
AcDbEntity
  8
Ebene 2
 62
   250
420
  1709851
370
    13
100
AcDbVertex
100
AcDb2dVertex
 10
526.0188852916899
 20
137.5007417157669
 30
0.0
  0
VERTEX
  5
362
330
360
100
AcDbEntity
  8
Ebene 2
 62
   250
420
  1709851
370
    13
100
AcDbVertex
100
AcDb2dVertex
 10
533.2339535261891
 20
150.0019679500825
 30
0.0
  0
VERTEX
  5
363
330
360
100
AcDbEntity
  8
Ebene 2
 62
   250
420
  1709851
370
    13
100
AcDbVertex
100
AcDb2dVertex
 10
526.0188852916899
 20
162.5007826159675
 30
0.0
  0
VERTEX
  5
364
330
360
100
AcDbEntity
  8
Ebene 2
 62
   250
420
  1709851
370
    13
100
AcDbVertex
100
AcDb2dVertex
 10
511.5842701956063
 20
162.5007826159675
 30
0.0
  0
VERTEX
  5
365
330
360
100
AcDbEntity
  8
Ebene 2
 62
   250
420
  1709851
370
    13
100
AcDbVertex
100
AcDb2dVertex
 10
504.3692019611071
 20
150.0019679500825
 30
0.0
  0
VERTEX
  5
366
330
360
100
AcDbEntity
  8
Ebene 2
 62
   250
420
  1709851
370
    13
100
AcDbVertex
100
AcDb2dVertex
 10
511.5842701956063
 20
137.5007417157669
 30
0.0
  0
VERTEX
  5
367
330
360
100
AcDbEntity
  8
Ebene 2
 62
   250
420
  1709851
370
    13
100
AcDbVertex
100
AcDb2dVertex
 10
526.0188852916899
 20
137.5007417157669
 30
0.0
  0
SEQEND
  5
368
330
360
100
AcDbEntity
  8
Ebene 2
370
    13
  0
POLYLINE
  5
369
330
353
100
AcDbEntity
  8
Ebene 2
 62
   250
420
  1709851
370
    13
100
AcDb2dPolyline
 66
     1
 10
0.0
 20
0.0
 30
0.0
  0
VERTEX
  5
36A
330
369
100
AcDbEntity
  8
Ebene 2
 62
   250
420
  1709851
370
    13
100
AcDbVertex
100
AcDb2dVertex
 10
526.0188852916899
 20
107.5008304394365
 30
0.0
  0
VERTEX
  5
36B
330
369
100
AcDbEntity
  8
Ebene 2
 62
   250
420
  1709851
370
    13
100
AcDbVertex
100
AcDb2dVertex
 10
533.2339535261891
 20
120.0017121639763
 30
0.0
  0
VERTEX
  5
36C
330
369
100
AcDbEntity
  8
Ebene 2
 62
   250
420
  1709851
370
    13
100
AcDbVertex
100
AcDb2dVertex
 10
526.0188852916899
 20
132.5008713396371
 30
0.0
  0
VERTEX
  5
36D
330
369
100
AcDbEntity
  8
Ebene 2
 62
   250
420
  1709851
370
    13
100
AcDbVertex
100
AcDb2dVertex
 10
511.5842701956063
 20
132.5008713396371
 30
0.0
  0
VERTEX
  5
36E
330
369
100
AcDbEntity
  8
Ebene 2
 62
   250
420
  1709851
370
    13
100
AcDbVertex
100
AcDb2dVertex
 10
504.3692019611071
 20
120.0017121639763
 30
0.0
  0
VERTEX
  5
36F
330
369
100
AcDbEntity
  8
Ebene 2
 62
   250
420
  1709851
370
    13
100
AcDbVertex
100
AcDb2dVertex
 10
511.5842701956063
 20
107.5008304394365
 30
0.0
  0
VERTEX
  5
370
330
369
100
AcDbEntity
  8
Ebene 2
 62
   250
420
  1709851
370
    13
100
AcDbVertex
100
AcDb2dVertex
 10
526.0188852916899
 20
107.5008304394365
 30
0.0
  0
SEQEND
  5
371
330
369
100
AcDbEntity
  8
Ebene 2
370
    13
  0
POLYLINE
  5
372
330
353
100
AcDbEntity
  8
Ebene 2
 62
   250
420
  1709851
370
    13
100
AcDb2dPolyline
 66
     1
 10
0.0
 20
0.0
 30
0.0
  0
VERTEX
  5
373
330
372
100
AcDbEntity
  8
Ebene 2
 62
   250
420
  1709851
370
    13
100
AcDbVertex
100
AcDb2dVertex
 10
526.0188852916899
 20
77.50091916310615
 30
0.0
  0
VERTEX
  5
374
330
372
100
AcDbEntity
  8
Ebene 2
 62
   250
420
  1709851
370
    13
100
AcDbVertex
100
AcDb2dVertex
 10
533.2339535261891
 20
90.00180088764593
 30
0.0
  0
VERTEX
  5
375
330
372
100
AcDbEntity
  8
Ebene 2
 62
   250
420
  1709851
370
    13
100
AcDbVertex
100
AcDb2dVertex
 10
526.0188852916899
 20
102.5009600633067
 30
0.0
  0
VERTEX
  5
376
330
372
100
AcDbEntity
  8
Ebene 2
 62
   250
420
  1709851
370
    13
100
AcDbVertex
100
AcDb2dVertex
 10
511.5842701956063
 20
102.5009600633067
 30
0.0
  0
VERTEX
  5
377
330
372
100
AcDbEntity
  8
Ebene 2
 62
   250
420
  1709851
370
    13
100
AcDbVertex
100
AcDb2dVertex
 10
504.3692019611071
 20
90.00180088764593
 30
0.0
  0
VERTEX
  5
378
330
372
100
AcDbEntity
  8
Ebene 2
 62
   250
420
  1709851
370
    13
100
AcDbVertex
100
AcDb2dVertex
 10
511.5842701956063
 20
77.50091916310615
 30
0.0
  0
VERTEX
  5
379
330
372
100
AcDbEntity
  8
Ebene 2
 62
   250
420
  1709851
370
    13
100
AcDbVertex
100
AcDb2dVertex
 10
526.0188852916899
 20
77.50091916310615
 30
0.0
  0
SEQEND
  5
37A
330
372
100
AcDbEntity
  8
Ebene 2
370
    13
  0
POLYLINE
  5
37B
330
353
100
AcDbEntity
  8
Ebene 2
 62
   250
420
  1709851
370
    13
100
AcDb2dPolyline
 66
     1
 10
0.0
 20
0.0
 30
0.0
  0
VERTEX
  5
37C
330
37B
100
AcDbEntity
  8
Ebene 2
 62
   250
420
  1709851
370
    13
100
AcDbVertex
100
AcDb2dVertex
 10
526.0188852916899
 20
47.50100788677576
 30
0.0
  0
VERTEX
  5
37D
330
37B
100
AcDbEntity
  8
Ebene 2
 62
   250
420
  1709851
370
    13
100
AcDbVertex
100
AcDb2dVertex
 10
533.2339535261891
 20
60.00188961131554
 30
0.0
  0
VERTEX
  5
37E
330
37B
100
AcDbEntity
  8
Ebene 2
 62
   250
420
  1709851
370
    13
100
AcDbVertex
100
AcDb2dVertex
 10
526.0188852916899
 20
72.50104878697634
 30
0.0
  0
VERTEX
  5
37F
330
37B
100
AcDbEntity
  8
Ebene 2
 62
   250
420
  1709851
370
    13
100
AcDbVertex
100
AcDb2dVertex
 10
511.5842701956063
 20
72.50104878697634
 30
0.0
  0
VERTEX
  5
380
330
37B
100
AcDbEntity
  8
Ebene 2
 62
   250
420
  1709851
370
    13
100
AcDbVertex
100
AcDb2dVertex
 10
504.3692019611071
 20
60.00188961131554
 30
0.0
  0
VERTEX
  5
381
330
37B
100
AcDbEntity
  8
Ebene 2
 62
   250
420
  1709851
370
    13
100
AcDbVertex
100
AcDb2dVertex
 10
511.5842701956063
 20
47.50100788677576
 30
0.0
  0
VERTEX
  5
382
330
37B
100
AcDbEntity
  8
Ebene 2
 62
   250
420
  1709851
370
    13
100
AcDbVertex
100
AcDb2dVertex
 10
526.0188852916899
 20
47.50100788677576
 30
0.0
  0
SEQEND
  5
383
330
37B
100
AcDbEntity
  8
Ebene 2
370
    13
  0
POLYLINE
  5
384
330
353
100
AcDbEntity
  8
Ebene 2
 62
   250
420
  1709851
370
    13
100
AcDb2dPolyline
 66
     1
 10
0.0
 20
0.0
 30
0.0
  0
VERTEX
  5
385
330
384
100
AcDbEntity
  8
Ebene 2
 62
   250
420
  1709851
370
    13
100
AcDbVertex
100
AcDb2dVertex
 10
526.0188852916899
 20
17.50075210066958
 30
0.0
  0
VERTEX
  5
386
330
384
100
AcDbEntity
  8
Ebene 2
 62
   250
420
  1709851
370
    13
100
AcDbVertex
100
AcDb2dVertex
 10
533.2339535261891
 20
30.00163382520936
 30
0.0
  0
VERTEX
  5
387
330
384
100
AcDbEntity
  8
Ebene 2
 62
   250
420
  1709851
370
    13
100
AcDbVertex
100
AcDb2dVertex
 10
526.0188852916899
 20
42.50079300087017
 30
0.0
  0
VERTEX
  5
388
330
384
100
AcDbEntity
  8
Ebene 2
 62
   250
420
  1709851
370
    13
100
AcDbVertex
100
AcDb2dVertex
 10
511.5842701956063
 20
42.50079300087017
 30
0.0
  0
VERTEX
  5
389
330
384
100
AcDbEntity
  8
Ebene 2
 62
   250
420
  1709851
370
    13
100
AcDbVertex
100
AcDb2dVertex
 10
504.3692019611071
 20
30.00163382520936
 30
0.0
  0
VERTEX
  5
38A
330
384
100
AcDbEntity
  8
Ebene 2
 62
   250
420
  1709851
370
    13
100
AcDbVertex
100
AcDb2dVertex
 10
511.5842701956063
 20
17.50075210066958
 30
0.0
  0
VERTEX
  5
38B
330
384
100
AcDbEntity
  8
Ebene 2
 62
   250
420
  1709851
370
    13
100
AcDbVertex
100
AcDb2dVertex
 10
526.0188852916899
 20
17.50075210066958
 30
0.0
  0
SEQEND
  5
38C
330
384
100
AcDbEntity
  8
Ebene 2
370
    13
  0
POLYLINE
  5
38D
330
353
100
AcDbEntity
  8
Ebene 2
 62
   250
420
  1709851
370
    13
100
AcDb2dPolyline
 66
     1
 10
0.0
 20
0.0
 30
0.0
  0
VERTEX
  5
38E
330
38D
100
AcDbEntity
  8
Ebene 2
 62
   250
420
  1709851
370
    13
100
AcDbVertex
100
AcDb2dVertex
 10
526.0188852916899
 20
197.5009087782035
 30
0.0
  0
VERTEX
  5
38F
330
38D
100
AcDbEntity
  8
Ebene 2
 62
   250
420
  1709851
370
    13
100
AcDbVertex
100
AcDb2dVertex
 10
533.2339535261891
 20
210.0021350125191
 30
0.0
  0
VERTEX
  5
390
330
38D
100
AcDbEntity
  8
Ebene 2
 62
   250
420
  1709851
370
    13
100
AcDbVertex
100
AcDb2dVertex
 10
526.0188852916899
 20
222.5009496784041
 30
0.0
  0
VERTEX
  5
391
330
38D
100
AcDbEntity
  8
Ebene 2
 62
   250
420
  1709851
370
    13
100
AcDbVertex
100
AcDb2dVertex
 10
511.5842701956063
 20
222.5009496784041
 30
0.0
  0
VERTEX
  5
392
330
38D
100
AcDbEntity
  8
Ebene 2
 62
   250
420
  1709851
370
    13
100
AcDbVertex
100
AcDb2dVertex
 10
504.3692019611071
 20
210.0021350125191
 30
0.0
  0
VERTEX
  5
393
330
38D
100
AcDbEntity
  8
Ebene 2
 62
   250
420
  1709851
370
    13
100
AcDbVertex
100
AcDb2dVertex
 10
511.5842701956063
 20
197.5009087782035
 30
0.0
  0
VERTEX
  5
394
330
38D
100
AcDbEntity
  8
Ebene 2
 62
   250
420
  1709851
370
    13
100
AcDbVertex
100
AcDb2dVertex
 10
526.0188852916899
 20
197.5009087782035
 30
0.0
  0
SEQEND
  5
395
330
38D
100
AcDbEntity
  8
Ebene 2
370
    13
  0
POLYLINE
  5
396
330
353
100
AcDbEntity
  8
Ebene 2
 62
   250
420
  1709851
370
    13
100
AcDb2dPolyline
 66
     1
 10
0.0
 20
0.0
 30
0.0
  0
VERTEX
  5
397
330
396
100
AcDbEntity
  8
Ebene 2
 62
   250
420
  1709851
370
    13
100
AcDbVertex
100
AcDb2dVertex
 10
526.0188852916899
 20
227.5008200545338
 30
0.0
  0
VERTEX
  5
398
330
396
100
AcDbEntity
  8
Ebene 2
 62
   250
420
  1709851
370
    13
100
AcDbVertex
100
AcDb2dVertex
 10
533.2339535261891
 20
240.0020462888494
 30
0.0
  0
VERTEX
  5
399
330
396
100
AcDbEntity
  8
Ebene 2
 62
   250
420
  1709851
370
    13
100
AcDbVertex
100
AcDb2dVertex
 10
526.0188852916899
 20
252.5008609547344
 30
0.0
  0
VERTEX
  5
39A
330
396
100
AcDbEntity
  8
Ebene 2
 62
   250
420
  1709851
370
    13
100
AcDbVertex
100
AcDb2dVertex
 10
511.5842701956063
 20
252.5008609547344
 30
0.0
  0
VERTEX
  5
39B
330
396
100
AcDbEntity
  8
Ebene 2
 62
   250
420
  1709851
370
    13
100
AcDbVertex
100
AcDb2dVertex
 10
504.3692019611071
 20
240.0020462888494
 30
0.0
  0
VERTEX
  5
39C
330
396
100
AcDbEntity
  8
Ebene 2
 62
   250
420
  1709851
370
    13
100
AcDbVertex
100
AcDb2dVertex
 10
511.5842701956063
 20
227.5008200545338
 30
0.0
  0
VERTEX
  5
39D
330
396
100
AcDbEntity
  8
Ebene 2
 62
   250
420
  1709851
370
    13
100
AcDbVertex
100
AcDb2dVertex
 10
526.0188852916899
 20
227.5008200545338
 30
0.0
  0
SEQEND
  5
39E
330
396
100
AcDbEntity
  8
Ebene 2
370
    13
  0
ENDBLK
  5
356
330
353
100
AcDbEntity
  8
0
100
AcDbBlockEnd
  0
BLOCK
  5
3A1
330
39F
100
AcDbEntity
  8
0
100
AcDbBlockBegin
  2
block 9
 70
     0
 71
     0
 10
0.0
 20
0.0
 30
0.0
  3
block 9
  1

  0
POLYLINE
  5
3A3
330
39F
100
AcDbEntity
  8
Ebene 2
 62
   250
420
  1709851
370
    13
100
AcDb2dPolyline
 66
     1
 10
0.0
 20
0.0
 30
0.0
  0
VERTEX
  5
3A4
330
3A3
100
AcDbEntity
  8
Ebene 2
 62
   250
420
  1709851
370
    13
100
AcDbVertex
100
AcDb2dVertex
 10
552.6684389984026
 20
182.5006086302625
 30
0.0
  0
VERTEX
  5
3A5
330
3A3
100
AcDbEntity
  8
Ebene 2
 62
   250
420
  1709851
370
    13
100
AcDbVertex
100
AcDb2dVertex
 10
559.8838517426775
 20
195.0018348645781
 30
0.0
  0
VERTEX
  5
3A6
330
3A3
100
AcDbEntity
  8
Ebene 2
 62
   250
420
  1709851
370
    13
100
AcDbVertex
100
AcDb2dVertex
 10
552.6684389984026
 20
207.5006495304631
 30
0.0
  0
VERTEX
  5
3A7
330
3A3
100
AcDbEntity
  8
Ebene 2
 62
   250
420
  1709851
370
    13
100
AcDbVertex
100
AcDb2dVertex
 10
538.2338239023189
 20
207.5006495304631
 30
0.0
  0
VERTEX
  5
3A8
330
3A3
100
AcDbEntity
  8
Ebene 2
 62
   250
420
  1709851
370
    13
100
AcDbVertex
100
AcDb2dVertex
 10
531.0187556678197
 20
195.0018348645781
 30
0.0
  0
VERTEX
  5
3A9
330
3A3
100
AcDbEntity
  8
Ebene 2
 62
   250
420
  1709851
370
    13
100
AcDbVertex
100
AcDb2dVertex
 10
538.2338239023189
 20
182.5006086302625
 30
0.0
  0
VERTEX
  5
3AA
330
3A3
100
AcDbEntity
  8
Ebene 2
 62
   250
420
  1709851
370
    13
100
AcDbVertex
100
AcDb2dVertex
 10
552.6684389984026
 20
182.5006086302625
 30
0.0
  0
SEQEND
  5
3AB
330
3A3
100
AcDbEntity
  8
Ebene 2
370
    13
  0
POLYLINE
  5
3AC
330
39F
100
AcDbEntity
  8
Ebene 2
 62
   250
420
  1709851
370
    13
100
AcDb2dPolyline
 66
     1
 10
0.0
 20
0.0
 30
0.0
  0
VERTEX
  5
3AD
330
3AC
100
AcDbEntity
  8
Ebene 2
 62
   250
420
  1709851
370
    13
100
AcDbVertex
100
AcDb2dVertex
 10
552.6684389984026
 20
152.5006973539321
 30
0.0
  0
VERTEX
  5
3AE
330
3AC
100
AcDbEntity
  8
Ebene 2
 62
   250
420
  1709851
370
    13
100
AcDbVertex
100
AcDb2dVertex
 10
559.8838517426775
 20
165.0019235882477
 30
0.0
  0
VERTEX
  5
3AF
330
3AC
100
AcDbEntity
  8
Ebene 2
 62
   250
420
  1709851
370
    13
100
AcDbVertex
100
AcDb2dVertex
 10
552.6684389984026
 20
177.5007382541327
 30
0.0
  0
VERTEX
  5
3B0
330
3AC
100
AcDbEntity
  8
Ebene 2
 62
   250
420
  1709851
370
    13
100
AcDbVertex
100
AcDb2dVertex
 10
538.2338239023189
 20
177.5007382541327
 30
0.0
  0
VERTEX
  5
3B1
330
3AC
100
AcDbEntity
  8
Ebene 2
 62
   250
420
  1709851
370
    13
100
AcDbVertex
100
AcDb2dVertex
 10
531.0187556678197
 20
165.0019235882477
 30
0.0
  0
VERTEX
  5
3B2
330
3AC
100
AcDbEntity
  8
Ebene 2
 62
   250
420
  1709851
370
    13
100
AcDbVertex
100
AcDb2dVertex
 10
538.2338239023189
 20
152.5006973539321
 30
0.0
  0
VERTEX
  5
3B3
330
3AC
100
AcDbEntity
  8
Ebene 2
 62
   250
420
  1709851
370
    13
100
AcDbVertex
100
AcDb2dVertex
 10
552.6684389984026
 20
152.5006973539321
 30
0.0
  0
SEQEND
  5
3B4
330
3AC
100
AcDbEntity
  8
Ebene 2
370
    13
  0
POLYLINE
  5
3B5
330
39F
100
AcDbEntity
  8
Ebene 2
 62
   250
420
  1709851
370
    13
100
AcDb2dPolyline
 66
     1
 10
0.0
 20
0.0
 30
0.0
  0
VERTEX
  5
3B6
330
3B5
100
AcDbEntity
  8
Ebene 2
 62
   250
420
  1709851
370
    13
100
AcDbVertex
100
AcDb2dVertex
 10
552.6684389984026
 20
122.5007860776017
 30
0.0
  0
VERTEX
  5
3B7
330
3B5
100
AcDbEntity
  8
Ebene 2
 62
   250
420
  1709851
370
    13
100
AcDbVertex
100
AcDb2dVertex
 10
559.8838517426775
 20
135.0016678021415
 30
0.0
  0
VERTEX
  5
3B8
330
3B5
100
AcDbEntity
  8
Ebene 2
 62
   250
420
  1709851
370
    13
100
AcDbVertex
100
AcDb2dVertex
 10
552.6684389984026
 20
147.5008269778023
 30
0.0
  0
VERTEX
  5
3B9
330
3B5
100
AcDbEntity
  8
Ebene 2
 62
   250
420
  1709851
370
    13
100
AcDbVertex
100
AcDb2dVertex
 10
538.2338239023189
 20
147.5008269778023
 30
0.0
  0
VERTEX
  5
3BA
330
3B5
100
AcDbEntity
  8
Ebene 2
 62
   250
420
  1709851
370
    13
100
AcDbVertex
100
AcDb2dVertex
 10
531.0187556678197
 20
135.0016678021415
 30
0.0
  0
VERTEX
  5
3BB
330
3B5
100
AcDbEntity
  8
Ebene 2
 62
   250
420
  1709851
370
    13
100
AcDbVertex
100
AcDb2dVertex
 10
538.2338239023189
 20
122.5007860776017
 30
0.0
  0
VERTEX
  5
3BC
330
3B5
100
AcDbEntity
  8
Ebene 2
 62
   250
420
  1709851
370
    13
100
AcDbVertex
100
AcDb2dVertex
 10
552.6684389984026
 20
122.5007860776017
 30
0.0
  0
SEQEND
  5
3BD
330
3B5
100
AcDbEntity
  8
Ebene 2
370
    13
  0
POLYLINE
  5
3BE
330
39F
100
AcDbEntity
  8
Ebene 2
 62
   250
420
  1709851
370
    13
100
AcDb2dPolyline
 66
     1
 10
0.0
 20
0.0
 30
0.0
  0
VERTEX
  5
3BF
330
3BE
100
AcDbEntity
  8
Ebene 2
 62
   250
420
  1709851
370
    13
100
AcDbVertex
100
AcDb2dVertex
 10
552.6684389984026
 20
92.50087480127134
 30
0.0
  0
VERTEX
  5
3C0
330
3BE
100
AcDbEntity
  8
Ebene 2
 62
   250
420
  1709851
370
    13
100
AcDbVertex
100
AcDb2dVertex
 10
559.8838517426775
 20
105.0017565258111
 30
0.0
  0
VERTEX
  5
3C1
330
3BE
100
AcDbEntity
  8
Ebene 2
 62
   250
420
  1709851
370
    13
100
AcDbVertex
100
AcDb2dVertex
 10
552.6684389984026
 20
117.5009157014719
 30
0.0
  0
VERTEX
  5
3C2
330
3BE
100
AcDbEntity
  8
Ebene 2
 62
   250
420
  1709851
370
    13
100
AcDbVertex
100
AcDb2dVertex
 10
538.2338239023189
 20
117.5009157014719
 30
0.0
  0
VERTEX
  5
3C3
330
3BE
100
AcDbEntity
  8
Ebene 2
 62
   250
420
  1709851
370
    13
100
AcDbVertex
100
AcDb2dVertex
 10
531.0187556678197
 20
105.0017565258111
 30
0.0
  0
VERTEX
  5
3C4
330
3BE
100
AcDbEntity
  8
Ebene 2
 62
   250
420
  1709851
370
    13
100
AcDbVertex
100
AcDb2dVertex
 10
538.2338239023189
 20
92.50087480127134
 30
0.0
  0
VERTEX
  5
3C5
330
3BE
100
AcDbEntity
  8
Ebene 2
 62
   250
420
  1709851
370
    13
100
AcDbVertex
100
AcDb2dVertex
 10
552.6684389984026
 20
92.50087480127134
 30
0.0
  0
SEQEND
  5
3C6
330
3BE
100
AcDbEntity
  8
Ebene 2
370
    13
  0
POLYLINE
  5
3C7
330
39F
100
AcDbEntity
  8
Ebene 2
 62
   250
420
  1709851
370
    13
100
AcDb2dPolyline
 66
     1
 10
0.0
 20
0.0
 30
0.0
  0
VERTEX
  5
3C8
330
3C7
100
AcDbEntity
  8
Ebene 2
 62
   250
420
  1709851
370
    13
100
AcDbVertex
100
AcDb2dVertex
 10
552.6684389984026
 20
62.50096352494095
 30
0.0
  0
VERTEX
  5
3C9
330
3C7
100
AcDbEntity
  8
Ebene 2
 62
   250
420
  1709851
370
    13
100
AcDbVertex
100
AcDb2dVertex
 10
559.8838517426775
 20
75.00184524948074
 30
0.0
  0
VERTEX
  5
3CA
330
3C7
100
AcDbEntity
  8
Ebene 2
 62
   250
420
  1709851
370
    13
100
AcDbVertex
100
AcDb2dVertex
 10
552.6684389984026
 20
87.50100442514153
 30
0.0
  0
VERTEX
  5
3CB
330
3C7
100
AcDbEntity
  8
Ebene 2
 62
   250
420
  1709851
370
    13
100
AcDbVertex
100
AcDb2dVertex
 10
538.2338239023189
 20
87.50100442514153
 30
0.0
  0
VERTEX
  5
3CC
330
3C7
100
AcDbEntity
  8
Ebene 2
 62
   250
420
  1709851
370
    13
100
AcDbVertex
100
AcDb2dVertex
 10
531.0187556678197
 20
75.00184524948074
 30
0.0
  0
VERTEX
  5
3CD
330
3C7
100
AcDbEntity
  8
Ebene 2
 62
   250
420
  1709851
370
    13
100
AcDbVertex
100
AcDb2dVertex
 10
538.2338239023189
 20
62.50096352494095
 30
0.0
  0
VERTEX
  5
3CE
330
3C7
100
AcDbEntity
  8
Ebene 2
 62
   250
420
  1709851
370
    13
100
AcDbVertex
100
AcDb2dVertex
 10
552.6684389984026
 20
62.50096352494095
 30
0.0
  0
SEQEND
  5
3CF
330
3C7
100
AcDbEntity
  8
Ebene 2
370
    13
  0
POLYLINE
  5
3D0
330
39F
100
AcDbEntity
  8
Ebene 2
 62
   250
420
  1709851
370
    13
100
AcDb2dPolyline
 66
     1
 10
0.0
 20
0.0
 30
0.0
  0
VERTEX
  5
3D1
330
3D0
100
AcDbEntity
  8
Ebene 2
 62
   250
420
  1709851
370
    13
100
AcDbVertex
100
AcDb2dVertex
 10
552.6684389984026
 20
32.50070773883477
 30
0.0
  0
VERTEX
  5
3D2
330
3D0
100
AcDbEntity
  8
Ebene 2
 62
   250
420
  1709851
370
    13
100
AcDbVertex
100
AcDb2dVertex
 10
559.8838517426775
 20
45.00158946337456
 30
0.0
  0
VERTEX
  5
3D3
330
3D0
100
AcDbEntity
  8
Ebene 2
 62
   250
420
  1709851
370
    13
100
AcDbVertex
100
AcDb2dVertex
 10
552.6684389984026
 20
57.50074863903536
 30
0.0
  0
VERTEX
  5
3D4
330
3D0
100
AcDbEntity
  8
Ebene 2
 62
   250
420
  1709851
370
    13
100
AcDbVertex
100
AcDb2dVertex
 10
538.2338239023189
 20
57.50074863903536
 30
0.0
  0
VERTEX
  5
3D5
330
3D0
100
AcDbEntity
  8
Ebene 2
 62
   250
420
  1709851
370
    13
100
AcDbVertex
100
AcDb2dVertex
 10
531.0187556678197
 20
45.00158946337456
 30
0.0
  0
VERTEX
  5
3D6
330
3D0
100
AcDbEntity
  8
Ebene 2
 62
   250
420
  1709851
370
    13
100
AcDbVertex
100
AcDb2dVertex
 10
538.2338239023189
 20
32.50070773883477
 30
0.0
  0
VERTEX
  5
3D7
330
3D0
100
AcDbEntity
  8
Ebene 2
 62
   250
420
  1709851
370
    13
100
AcDbVertex
100
AcDb2dVertex
 10
552.6684389984026
 20
32.50070773883477
 30
0.0
  0
SEQEND
  5
3D8
330
3D0
100
AcDbEntity
  8
Ebene 2
370
    13
  0
POLYLINE
  5
3D9
330
39F
100
AcDbEntity
  8
Ebene 2
 62
   250
420
  1709851
370
    13
100
AcDb2dPolyline
 66
     1
 10
0.0
 20
0.0
 30
0.0
  0
VERTEX
  5
3DA
330
3D9
100
AcDbEntity
  8
Ebene 2
 62
   250
420
  1709851
370
    13
100
AcDbVertex
100
AcDb2dVertex
 10
552.6684389984026
 20
212.5008644163687
 30
0.0
  0
VERTEX
  5
3DB
330
3D9
100
AcDbEntity
  8
Ebene 2
 62
   250
420
  1709851
370
    13
100
AcDbVertex
100
AcDb2dVertex
 10
559.8838517426775
 20
225.0020906506842
 30
0.0
  0
VERTEX
  5
3DC
330
3D9
100
AcDbEntity
  8
Ebene 2
 62
   250
420
  1709851
370
    13
100
AcDbVertex
100
AcDb2dVertex
 10
552.6684389984026
 20
237.5009053165693
 30
0.0
  0
VERTEX
  5
3DD
330
3D9
100
AcDbEntity
  8
Ebene 2
 62
   250
420
  1709851
370
    13
100
AcDbVertex
100
AcDb2dVertex
 10
538.2338239023189
 20
237.5009053165693
 30
0.0
  0
VERTEX
  5
3DE
330
3D9
100
AcDbEntity
  8
Ebene 2
 62
   250
420
  1709851
370
    13
100
AcDbVertex
100
AcDb2dVertex
 10
531.0187556678197
 20
225.0020906506842
 30
0.0
  0
VERTEX
  5
3DF
330
3D9
100
AcDbEntity
  8
Ebene 2
 62
   250
420
  1709851
370
    13
100
AcDbVertex
100
AcDb2dVertex
 10
538.2338239023189
 20
212.5008644163687
 30
0.0
  0
VERTEX
  5
3E0
330
3D9
100
AcDbEntity
  8
Ebene 2
 62
   250
420
  1709851
370
    13
100
AcDbVertex
100
AcDb2dVertex
 10
552.6684389984026
 20
212.5008644163687
 30
0.0
  0
SEQEND
  5
3E1
330
3D9
100
AcDbEntity
  8
Ebene 2
370
    13
  0
POLYLINE
  5
3E2
330
39F
100
AcDbEntity
  8
Ebene 2
 62
   250
420
  1709851
370
    13
100
AcDb2dPolyline
 66
     1
 10
0.0
 20
0.0
 30
0.0
  0
VERTEX
  5
3E3
330
3E2
100
AcDbEntity
  8
Ebene 2
 62
   250
420
  1709851
370
    13
100
AcDbVertex
100
AcDb2dVertex
 10
552.6684389984026
 20
242.5007756926991
 30
0.0
  0
VERTEX
  5
3E4
330
3E2
100
AcDbEntity
  8
Ebene 2
 62
   250
420
  1709851
370
    13
100
AcDbVertex
100
AcDb2dVertex
 10
559.8838517426775
 20
255.0020019270146
 30
0.0
  0
VERTEX
  5
3E5
330
3E2
100
AcDbEntity
  8
Ebene 2
 62
   250
420
  1709851
370
    13
100
AcDbVertex
100
AcDb2dVertex
 10
552.6684389984026
 20
267.5008165928996
 30
0.0
  0
VERTEX
  5
3E6
330
3E2
100
AcDbEntity
  8
Ebene 2
 62
   250
420
  1709851
370
    13
100
AcDbVertex
100
AcDb2dVertex
 10
538.2338239023189
 20
267.5008165928996
 30
0.0
  0
VERTEX
  5
3E7
330
3E2
100
AcDbEntity
  8
Ebene 2
 62
   250
420
  1709851
370
    13
100
AcDbVertex
100
AcDb2dVertex
 10
531.0187556678197
 20
255.0020019270146
 30
0.0
  0
VERTEX
  5
3E8
330
3E2
100
AcDbEntity
  8
Ebene 2
 62
   250
420
  1709851
370
    13
100
AcDbVertex
100
AcDb2dVertex
 10
538.2338239023189
 20
242.5007756926991
 30
0.0
  0
VERTEX
  5
3E9
330
3E2
100
AcDbEntity
  8
Ebene 2
 62
   250
420
  1709851
370
    13
100
AcDbVertex
100
AcDb2dVertex
 10
552.6684389984026
 20
242.5007756926991
 30
0.0
  0
SEQEND
  5
3EA
330
3E2
100
AcDbEntity
  8
Ebene 2
370
    13
  0
ENDBLK
  5
3A2
330
39F
100
AcDbEntity
  8
0
100
AcDbBlockEnd
  0
BLOCK
  5
3ED
330
3EB
100
AcDbEntity
  8
0
100
AcDbBlockBegin
  2
block 10
 70
     0
 71
     0
 10
0.0
 20
0.0
 30
0.0
  3
block 10
  1

  0
POLYLINE
  5
3EF
330
3EB
100
AcDbEntity
  8
Ebene 2
 62
   250
420
  1709851
370
    13
100
AcDb2dPolyline
 66
     1
 10
0.0
 20
0.0
 30
0.0
  0
VERTEX
  5
3F0
330
3EF
100
AcDbEntity
  8
Ebene 2
 62
   250
420
  1709851
370
    13
100
AcDbVertex
100
AcDb2dVertex
 10
579.3179927051152
 20
167.5006529920973
 30
0.0
  0
VERTEX
  5
3F1
330
3EF
100
AcDbEntity
  8
Ebene 2
 62
   250
420
  1709851
370
    13
100
AcDbVertex
100
AcDb2dVertex
 10
586.5330609396144
 20
180.0018792264129
 30
0.0
  0
VERTEX
  5
3F2
330
3EF
100
AcDbEntity
  8
Ebene 2
 62
   250
420
  1709851
370
    13
100
AcDbVertex
100
AcDb2dVertex
 10
579.3179927051152
 20
192.5006938922979
 30
0.0
  0
VERTEX
  5
3F3
330
3EF
100
AcDbEntity
  8
Ebene 2
 62
   250
420
  1709851
370
    13
100
AcDbVertex
100
AcDb2dVertex
 10
564.8833776090315
 20
192.5006938922979
 30
0.0
  0
VERTEX
  5
3F4
330
3EF
100
AcDbEntity
  8
Ebene 2
 62
   250
420
  1709851
370
    13
100
AcDbVertex
100
AcDb2dVertex
 10
557.6683093745324
 20
180.0018792264129
 30
0.0
  0
VERTEX
  5
3F5
330
3EF
100
AcDbEntity
  8
Ebene 2
 62
   250
420
  1709851
370
    13
100
AcDbVertex
100
AcDb2dVertex
 10
564.8833776090315
 20
167.5006529920973
 30
0.0
  0
VERTEX
  5
3F6
330
3EF
100
AcDbEntity
  8
Ebene 2
 62
   250
420
  1709851
370
    13
100
AcDbVertex
100
AcDb2dVertex
 10
579.3179927051152
 20
167.5006529920973
 30
0.0
  0
SEQEND
  5
3F7
330
3EF
100
AcDbEntity
  8
Ebene 2
370
    13
  0
POLYLINE
  5
3F8
330
3EB
100
AcDbEntity
  8
Ebene 2
 62
   250
420
  1709851
370
    13
100
AcDb2dPolyline
 66
     1
 10
0.0
 20
0.0
 30
0.0
  0
VERTEX
  5
3F9
330
3F8
100
AcDbEntity
  8
Ebene 2
 62
   250
420
  1709851
370
    13
100
AcDbVertex
100
AcDb2dVertex
 10
579.3179927051152
 20
137.5007417157669
 30
0.0
  0
VERTEX
  5
3FA
330
3F8
100
AcDbEntity
  8
Ebene 2
 62
   250
420
  1709851
370
    13
100
AcDbVertex
100
AcDb2dVertex
 10
586.5330609396144
 20
150.0019679500825
 30
0.0
  0
VERTEX
  5
3FB
330
3F8
100
AcDbEntity
  8
Ebene 2
 62
   250
420
  1709851
370
    13
100
AcDbVertex
100
AcDb2dVertex
 10
579.3179927051152
 20
162.5007826159675
 30
0.0
  0
VERTEX
  5
3FC
330
3F8
100
AcDbEntity
  8
Ebene 2
 62
   250
420
  1709851
370
    13
100
AcDbVertex
100
AcDb2dVertex
 10
564.8833776090315
 20
162.5007826159675
 30
0.0
  0
VERTEX
  5
3FD
330
3F8
100
AcDbEntity
  8
Ebene 2
 62
   250
420
  1709851
370
    13
100
AcDbVertex
100
AcDb2dVertex
 10
557.6683093745324
 20
150.0019679500825
 30
0.0
  0
VERTEX
  5
3FE
330
3F8
100
AcDbEntity
  8
Ebene 2
 62
   250
420
  1709851
370
    13
100
AcDbVertex
100
AcDb2dVertex
 10
564.8833776090315
 20
137.5007417157669
 30
0.0
  0
VERTEX
  5
3FF
330
3F8
100
AcDbEntity
  8
Ebene 2
 62
   250
420
  1709851
370
    13
100
AcDbVertex
100
AcDb2dVertex
 10
579.3179927051152
 20
137.5007417157669
 30
0.0
  0
SEQEND
  5
400
330
3F8
100
AcDbEntity
  8
Ebene 2
370
    13
  0
POLYLINE
  5
401
330
3EB
100
AcDbEntity
  8
Ebene 2
 62
   250
420
  1709851
370
    13
100
AcDb2dPolyline
 66
     1
 10
0.0
 20
0.0
 30
0.0
  0
VERTEX
  5
402
330
401
100
AcDbEntity
  8
Ebene 2
 62
   250
420
  1709851
370
    13
100
AcDbVertex
100
AcDb2dVertex
 10
579.3179927051152
 20
107.5008304394365
 30
0.0
  0
VERTEX
  5
403
330
401
100
AcDbEntity
  8
Ebene 2
 62
   250
420
  1709851
370
    13
100
AcDbVertex
100
AcDb2dVertex
 10
586.5330609396144
 20
120.0017121639763
 30
0.0
  0
VERTEX
  5
404
330
401
100
AcDbEntity
  8
Ebene 2
 62
   250
420
  1709851
370
    13
100
AcDbVertex
100
AcDb2dVertex
 10
579.3179927051152
 20
132.5008713396371
 30
0.0
  0
VERTEX
  5
405
330
401
100
AcDbEntity
  8
Ebene 2
 62
   250
420
  1709851
370
    13
100
AcDbVertex
100
AcDb2dVertex
 10
564.8833776090315
 20
132.5008713396371
 30
0.0
  0
VERTEX
  5
406
330
401
100
AcDbEntity
  8
Ebene 2
 62
   250
420
  1709851
370
    13
100
AcDbVertex
100
AcDb2dVertex
 10
557.6683093745324
 20
120.0017121639763
 30
0.0
  0
VERTEX
  5
407
330
401
100
AcDbEntity
  8
Ebene 2
 62
   250
420
  1709851
370
    13
100
AcDbVertex
100
AcDb2dVertex
 10
564.8833776090315
 20
107.5008304394365
 30
0.0
  0
VERTEX
  5
408
330
401
100
AcDbEntity
  8
Ebene 2
 62
   250
420
  1709851
370
    13
100
AcDbVertex
100
AcDb2dVertex
 10
579.3179927051152
 20
107.5008304394365
 30
0.0
  0
SEQEND
  5
409
330
401
100
AcDbEntity
  8
Ebene 2
370
    13
  0
POLYLINE
  5
40A
330
3EB
100
AcDbEntity
  8
Ebene 2
 62
   250
420
  1709851
370
    13
100
AcDb2dPolyline
 66
     1
 10
0.0
 20
0.0
 30
0.0
  0
VERTEX
  5
40B
330
40A
100
AcDbEntity
  8
Ebene 2
 62
   250
420
  1709851
370
    13
100
AcDbVertex
100
AcDb2dVertex
 10
579.3179927051152
 20
77.50091916310615
 30
0.0
  0
VERTEX
  5
40C
330
40A
100
AcDbEntity
  8
Ebene 2
 62
   250
420
  1709851
370
    13
100
AcDbVertex
100
AcDb2dVertex
 10
586.5330609396144
 20
90.00180088764593
 30
0.0
  0
VERTEX
  5
40D
330
40A
100
AcDbEntity
  8
Ebene 2
 62
   250
420
  1709851
370
    13
100
AcDbVertex
100
AcDb2dVertex
 10
579.3179927051152
 20
102.5009600633067
 30
0.0
  0
VERTEX
  5
40E
330
40A
100
AcDbEntity
  8
Ebene 2
 62
   250
420
  1709851
370
    13
100
AcDbVertex
100
AcDb2dVertex
 10
564.8833776090315
 20
102.5009600633067
 30
0.0
  0
VERTEX
  5
40F
330
40A
100
AcDbEntity
  8
Ebene 2
 62
   250
420
  1709851
370
    13
100
AcDbVertex
100
AcDb2dVertex
 10
557.6683093745324
 20
90.00180088764593
 30
0.0
  0
VERTEX
  5
410
330
40A
100
AcDbEntity
  8
Ebene 2
 62
   250
420
  1709851
370
    13
100
AcDbVertex
100
AcDb2dVertex
 10
564.8833776090315
 20
77.50091916310615
 30
0.0
  0
VERTEX
  5
411
330
40A
100
AcDbEntity
  8
Ebene 2
 62
   250
420
  1709851
370
    13
100
AcDbVertex
100
AcDb2dVertex
 10
579.3179927051152
 20
77.50091916310615
 30
0.0
  0
SEQEND
  5
412
330
40A
100
AcDbEntity
  8
Ebene 2
370
    13
  0
POLYLINE
  5
413
330
3EB
100
AcDbEntity
  8
Ebene 2
 62
   250
420
  1709851
370
    13
100
AcDb2dPolyline
 66
     1
 10
0.0
 20
0.0
 30
0.0
  0
VERTEX
  5
414
330
413
100
AcDbEntity
  8
Ebene 2
 62
   250
420
  1709851
370
    13
100
AcDbVertex
100
AcDb2dVertex
 10
579.3179927051152
 20
47.50100788677576
 30
0.0
  0
VERTEX
  5
415
330
413
100
AcDbEntity
  8
Ebene 2
 62
   250
420
  1709851
370
    13
100
AcDbVertex
100
AcDb2dVertex
 10
586.5330609396144
 20
60.00188961131554
 30
0.0
  0
VERTEX
  5
416
330
413
100
AcDbEntity
  8
Ebene 2
 62
   250
420
  1709851
370
    13
100
AcDbVertex
100
AcDb2dVertex
 10
579.3179927051152
 20
72.50104878697634
 30
0.0
  0
VERTEX
  5
417
330
413
100
AcDbEntity
  8
Ebene 2
 62
   250
420
  1709851
370
    13
100
AcDbVertex
100
AcDb2dVertex
 10
564.8833776090315
 20
72.50104878697634
 30
0.0
  0
VERTEX
  5
418
330
413
100
AcDbEntity
  8
Ebene 2
 62
   250
420
  1709851
370
    13
100
AcDbVertex
100
AcDb2dVertex
 10
557.6683093745324
 20
60.00188961131554
 30
0.0
  0
VERTEX
  5
419
330
413
100
AcDbEntity
  8
Ebene 2
 62
   250
420
  1709851
370
    13
100
AcDbVertex
100
AcDb2dVertex
 10
564.8833776090315
 20
47.50100788677576
 30
0.0
  0
VERTEX
  5
41A
330
413
100
AcDbEntity
  8
Ebene 2
 62
   250
420
  1709851
370
    13
100
AcDbVertex
100
AcDb2dVertex
 10
579.3179927051152
 20
47.50100788677576
 30
0.0
  0
SEQEND
  5
41B
330
413
100
AcDbEntity
  8
Ebene 2
370
    13
  0
POLYLINE
  5
41C
330
3EB
100
AcDbEntity
  8
Ebene 2
 62
   250
420
  1709851
370
    13
100
AcDb2dPolyline
 66
     1
 10
0.0
 20
0.0
 30
0.0
  0
VERTEX
  5
41D
330
41C
100
AcDbEntity
  8
Ebene 2
 62
   250
420
  1709851
370
    13
100
AcDbVertex
100
AcDb2dVertex
 10
579.3179927051152
 20
17.50075210066958
 30
0.0
  0
VERTEX
  5
41E
330
41C
100
AcDbEntity
  8
Ebene 2
 62
   250
420
  1709851
370
    13
100
AcDbVertex
100
AcDb2dVertex
 10
586.5330609396144
 20
30.00163382520936
 30
0.0
  0
VERTEX
  5
41F
330
41C
100
AcDbEntity
  8
Ebene 2
 62
   250
420
  1709851
370
    13
100
AcDbVertex
100
AcDb2dVertex
 10
579.3179927051152
 20
42.50079300087017
 30
0.0
  0
VERTEX
  5
420
330
41C
100
AcDbEntity
  8
Ebene 2
 62
   250
420
  1709851
370
    13
100
AcDbVertex
100
AcDb2dVertex
 10
564.8833776090315
 20
42.50079300087017
 30
0.0
  0
VERTEX
  5
421
330
41C
100
AcDbEntity
  8
Ebene 2
 62
   250
420
  1709851
370
    13
100
AcDbVertex
100
AcDb2dVertex
 10
557.6683093745324
 20
30.00163382520936
 30
0.0
  0
VERTEX
  5
422
330
41C
100
AcDbEntity
  8
Ebene 2
 62
   250
420
  1709851
370
    13
100
AcDbVertex
100
AcDb2dVertex
 10
564.8833776090315
 20
17.50075210066958
 30
0.0
  0
VERTEX
  5
423
330
41C
100
AcDbEntity
  8
Ebene 2
 62
   250
420
  1709851
370
    13
100
AcDbVertex
100
AcDb2dVertex
 10
579.3179927051152
 20
17.50075210066958
 30
0.0
  0
SEQEND
  5
424
330
41C
100
AcDbEntity
  8
Ebene 2
370
    13
  0
POLYLINE
  5
425
330
3EB
100
AcDbEntity
  8
Ebene 2
 62
   250
420
  1709851
370
    13
100
AcDb2dPolyline
 66
     1
 10
0.0
 20
0.0
 30
0.0
  0
VERTEX
  5
426
330
425
100
AcDbEntity
  8
Ebene 2
 62
   250
420
  1709851
370
    13
100
AcDbVertex
100
AcDb2dVertex
 10
579.3179927051152
 20
197.5009087782035
 30
0.0
  0
VERTEX
  5
427
330
425
100
AcDbEntity
  8
Ebene 2
 62
   250
420
  1709851
370
    13
100
AcDbVertex
100
AcDb2dVertex
 10
586.5330609396144
 20
210.0021350125191
 30
0.0
  0
VERTEX
  5
428
330
425
100
AcDbEntity
  8
Ebene 2
 62
   250
420
  1709851
370
    13
100
AcDbVertex
100
AcDb2dVertex
 10
579.3179927051152
 20
222.5009496784041
 30
0.0
  0
VERTEX
  5
429
330
425
100
AcDbEntity
  8
Ebene 2
 62
   250
420
  1709851
370
    13
100
AcDbVertex
100
AcDb2dVertex
 10
564.8833776090315
 20
222.5009496784041
 30
0.0
  0
VERTEX
  5
42A
330
425
100
AcDbEntity
  8
Ebene 2
 62
   250
420
  1709851
370
    13
100
AcDbVertex
100
AcDb2dVertex
 10
557.6683093745324
 20
210.0021350125191
 30
0.0
  0
VERTEX
  5
42B
330
425
100
AcDbEntity
  8
Ebene 2
 62
   250
420
  1709851
370
    13
100
AcDbVertex
100
AcDb2dVertex
 10
564.8833776090315
 20
197.5009087782035
 30
0.0
  0
VERTEX
  5
42C
330
425
100
AcDbEntity
  8
Ebene 2
 62
   250
420
  1709851
370
    13
100
AcDbVertex
100
AcDb2dVertex
 10
579.3179927051152
 20
197.5009087782035
 30
0.0
  0
SEQEND
  5
42D
330
425
100
AcDbEntity
  8
Ebene 2
370
    13
  0
POLYLINE
  5
42E
330
3EB
100
AcDbEntity
  8
Ebene 2
 62
   250
420
  1709851
370
    13
100
AcDb2dPolyline
 66
     1
 10
0.0
 20
0.0
 30
0.0
  0
VERTEX
  5
42F
330
42E
100
AcDbEntity
  8
Ebene 2
 62
   250
420
  1709851
370
    13
100
AcDbVertex
100
AcDb2dVertex
 10
579.3179927051152
 20
227.5008200545338
 30
0.0
  0
VERTEX
  5
430
330
42E
100
AcDbEntity
  8
Ebene 2
 62
   250
420
  1709851
370
    13
100
AcDbVertex
100
AcDb2dVertex
 10
586.5330609396144
 20
240.0020462888494
 30
0.0
  0
VERTEX
  5
431
330
42E
100
AcDbEntity
  8
Ebene 2
 62
   250
420
  1709851
370
    13
100
AcDbVertex
100
AcDb2dVertex
 10
579.3179927051152
 20
252.5008609547344
 30
0.0
  0
VERTEX
  5
432
330
42E
100
AcDbEntity
  8
Ebene 2
 62
   250
420
  1709851
370
    13
100
AcDbVertex
100
AcDb2dVertex
 10
564.8833776090315
 20
252.5008609547344
 30
0.0
  0
VERTEX
  5
433
330
42E
100
AcDbEntity
  8
Ebene 2
 62
   250
420
  1709851
370
    13
100
AcDbVertex
100
AcDb2dVertex
 10
557.6683093745324
 20
240.0020462888494
 30
0.0
  0
VERTEX
  5
434
330
42E
100
AcDbEntity
  8
Ebene 2
 62
   250
420
  1709851
370
    13
100
AcDbVertex
100
AcDb2dVertex
 10
564.8833776090315
 20
227.5008200545338
 30
0.0
  0
VERTEX
  5
435
330
42E
100
AcDbEntity
  8
Ebene 2
 62
   250
420
  1709851
370
    13
100
AcDbVertex
100
AcDb2dVertex
 10
579.3179927051152
 20
227.5008200545338
 30
0.0
  0
SEQEND
  5
436
330
42E
100
AcDbEntity
  8
Ebene 2
370
    13
  0
ENDBLK
  5
3EE
330
3EB
100
AcDbEntity
  8
0
100
AcDbBlockEnd
  0
BLOCK
  5
439
330
437
100
AcDbEntity
  8
0
100
AcDbBlockBegin
  2
block 11
 70
     0
 71
     0
 10
0.0
 20
0.0
 30
0.0
  3
block 11
  1

  0
POLYLINE
  5
43B
330
437
100
AcDbEntity
  8
Ebene 2
 62
   250
420
  1709851
370
    13
100
AcDb2dPolyline
 66
     1
 10
0.0
 20
0.0
 30
0.0
  0
VERTEX
  5
43C
330
43B
100
AcDbEntity
  8
Ebene 2
 62
   250
420
  1709851
370
    13
100
AcDbVertex
100
AcDb2dVertex
 10
605.9675464118279
 20
182.5006086302625
 30
0.0
  0
VERTEX
  5
43D
330
43B
100
AcDbEntity
  8
Ebene 2
 62
   250
420
  1709851
370
    13
100
AcDbVertex
100
AcDb2dVertex
 10
613.1829591561028
 20
195.0018348645781
 30
0.0
  0
VERTEX
  5
43E
330
43B
100
AcDbEntity
  8
Ebene 2
 62
   250
420
  1709851
370
    13
100
AcDbVertex
100
AcDb2dVertex
 10
605.9675464118279
 20
207.5006495304631
 30
0.0
  0
VERTEX
  5
43F
330
43B
100
AcDbEntity
  8
Ebene 2
 62
   250
420
  1709851
370
    13
100
AcDbVertex
100
AcDb2dVertex
 10
591.5329313157442
 20
207.5006495304631
 30
0.0
  0
VERTEX
  5
440
330
43B
100
AcDbEntity
  8
Ebene 2
 62
   250
420
  1709851
370
    13
100
AcDbVertex
100
AcDb2dVertex
 10
584.317863081245
 20
195.0018348645781
 30
0.0
  0
VERTEX
  5
441
330
43B
100
AcDbEntity
  8
Ebene 2
 62
   250
420
  1709851
370
    13
100
AcDbVertex
100
AcDb2dVertex
 10
591.5329313157442
 20
182.5006086302625
 30
0.0
  0
VERTEX
  5
442
330
43B
100
AcDbEntity
  8
Ebene 2
 62
   250
420
  1709851
370
    13
100
AcDbVertex
100
AcDb2dVertex
 10
605.9675464118279
 20
182.5006086302625
 30
0.0
  0
SEQEND
  5
443
330
43B
100
AcDbEntity
  8
Ebene 2
370
    13
  0
POLYLINE
  5
444
330
437
100
AcDbEntity
  8
Ebene 2
 62
   250
420
  1709851
370
    13
100
AcDb2dPolyline
 66
     1
 10
0.0
 20
0.0
 30
0.0
  0
VERTEX
  5
445
330
444
100
AcDbEntity
  8
Ebene 2
 62
   250
420
  1709851
370
    13
100
AcDbVertex
100
AcDb2dVertex
 10
605.9675464118279
 20
152.5006973539321
 30
0.0
  0
VERTEX
  5
446
330
444
100
AcDbEntity
  8
Ebene 2
 62
   250
420
  1709851
370
    13
100
AcDbVertex
100
AcDb2dVertex
 10
613.1829591561028
 20
165.0019235882477
 30
0.0
  0
VERTEX
  5
447
330
444
100
AcDbEntity
  8
Ebene 2
 62
   250
420
  1709851
370
    13
100
AcDbVertex
100
AcDb2dVertex
 10
605.9675464118279
 20
177.5007382541327
 30
0.0
  0
VERTEX
  5
448
330
444
100
AcDbEntity
  8
Ebene 2
 62
   250
420
  1709851
370
    13
100
AcDbVertex
100
AcDb2dVertex
 10
591.5329313157442
 20
177.5007382541327
 30
0.0
  0
VERTEX
  5
449
330
444
100
AcDbEntity
  8
Ebene 2
 62
   250
420
  1709851
370
    13
100
AcDbVertex
100
AcDb2dVertex
 10
584.317863081245
 20
165.0019235882477
 30
0.0
  0
VERTEX
  5
44A
330
444
100
AcDbEntity
  8
Ebene 2
 62
   250
420
  1709851
370
    13
100
AcDbVertex
100
AcDb2dVertex
 10
591.5329313157442
 20
152.5006973539321
 30
0.0
  0
VERTEX
  5
44B
330
444
100
AcDbEntity
  8
Ebene 2
 62
   250
420
  1709851
370
    13
100
AcDbVertex
100
AcDb2dVertex
 10
605.9675464118279
 20
152.5006973539321
 30
0.0
  0
SEQEND
  5
44C
330
444
100
AcDbEntity
  8
Ebene 2
370
    13
  0
POLYLINE
  5
44D
330
437
100
AcDbEntity
  8
Ebene 2
 62
   250
420
  1709851
370
    13
100
AcDb2dPolyline
 66
     1
 10
0.0
 20
0.0
 30
0.0
  0
VERTEX
  5
44E
330
44D
100
AcDbEntity
  8
Ebene 2
 62
   250
420
  1709851
370
    13
100
AcDbVertex
100
AcDb2dVertex
 10
605.9675464118279
 20
122.5007860776017
 30
0.0
  0
VERTEX
  5
44F
330
44D
100
AcDbEntity
  8
Ebene 2
 62
   250
420
  1709851
370
    13
100
AcDbVertex
100
AcDb2dVertex
 10
613.1829591561028
 20
135.0016678021415
 30
0.0
  0
VERTEX
  5
450
330
44D
100
AcDbEntity
  8
Ebene 2
 62
   250
420
  1709851
370
    13
100
AcDbVertex
100
AcDb2dVertex
 10
605.9675464118279
 20
147.5008269778023
 30
0.0
  0
VERTEX
  5
451
330
44D
100
AcDbEntity
  8
Ebene 2
 62
   250
420
  1709851
370
    13
100
AcDbVertex
100
AcDb2dVertex
 10
591.5329313157442
 20
147.5008269778023
 30
0.0
  0
VERTEX
  5
452
330
44D
100
AcDbEntity
  8
Ebene 2
 62
   250
420
  1709851
370
    13
100
AcDbVertex
100
AcDb2dVertex
 10
584.317863081245
 20
135.0016678021415
 30
0.0
  0
VERTEX
  5
453
330
44D
100
AcDbEntity
  8
Ebene 2
 62
   250
420
  1709851
370
    13
100
AcDbVertex
100
AcDb2dVertex
 10
591.5329313157442
 20
122.5007860776017
 30
0.0
  0
VERTEX
  5
454
330
44D
100
AcDbEntity
  8
Ebene 2
 62
   250
420
  1709851
370
    13
100
AcDbVertex
100
AcDb2dVertex
 10
605.9675464118279
 20
122.5007860776017
 30
0.0
  0
SEQEND
  5
455
330
44D
100
AcDbEntity
  8
Ebene 2
370
    13
  0
POLYLINE
  5
456
330
437
100
AcDbEntity
  8
Ebene 2
 62
   250
420
  1709851
370
    13
100
AcDb2dPolyline
 66
     1
 10
0.0
 20
0.0
 30
0.0
  0
VERTEX
  5
457
330
456
100
AcDbEntity
  8
Ebene 2
 62
   250
420
  1709851
370
    13
100
AcDbVertex
100
AcDb2dVertex
 10
605.9675464118279
 20
92.50087480127134
 30
0.0
  0
VERTEX
  5
458
330
456
100
AcDbEntity
  8
Ebene 2
 62
   250
420
  1709851
370
    13
100
AcDbVertex
100
AcDb2dVertex
 10
613.1829591561028
 20
105.0017565258111
 30
0.0
  0
VERTEX
  5
459
330
456
100
AcDbEntity
  8
Ebene 2
 62
   250
420
  1709851
370
    13
100
AcDbVertex
100
AcDb2dVertex
 10
605.9675464118279
 20
117.5009157014719
 30
0.0
  0
VERTEX
  5
45A
330
456
100
AcDbEntity
  8
Ebene 2
 62
   250
420
  1709851
370
    13
100
AcDbVertex
100
AcDb2dVertex
 10
591.5329313157442
 20
117.5009157014719
 30
0.0
  0
VERTEX
  5
45B
330
456
100
AcDbEntity
  8
Ebene 2
 62
   250
420
  1709851
370
    13
100
AcDbVertex
100
AcDb2dVertex
 10
584.317863081245
 20
105.0017565258111
 30
0.0
  0
VERTEX
  5
45C
330
456
100
AcDbEntity
  8
Ebene 2
 62
   250
420
  1709851
370
    13
100
AcDbVertex
100
AcDb2dVertex
 10
591.5329313157442
 20
92.50087480127134
 30
0.0
  0
VERTEX
  5
45D
330
456
100
AcDbEntity
  8
Ebene 2
 62
   250
420
  1709851
370
    13
100
AcDbVertex
100
AcDb2dVertex
 10
605.9675464118279
 20
92.50087480127134
 30
0.0
  0
SEQEND
  5
45E
330
456
100
AcDbEntity
  8
Ebene 2
370
    13
  0
POLYLINE
  5
45F
330
437
100
AcDbEntity
  8
Ebene 2
 62
   250
420
  1709851
370
    13
100
AcDb2dPolyline
 66
     1
 10
0.0
 20
0.0
 30
0.0
  0
VERTEX
  5
460
330
45F
100
AcDbEntity
  8
Ebene 2
 62
   250
420
  1709851
370
    13
100
AcDbVertex
100
AcDb2dVertex
 10
605.9675464118279
 20
62.50096352494095
 30
0.0
  0
VERTEX
  5
461
330
45F
100
AcDbEntity
  8
Ebene 2
 62
   250
420
  1709851
370
    13
100
AcDbVertex
100
AcDb2dVertex
 10
613.1829591561028
 20
75.00184524948074
 30
0.0
  0
VERTEX
  5
462
330
45F
100
AcDbEntity
  8
Ebene 2
 62
   250
420
  1709851
370
    13
100
AcDbVertex
100
AcDb2dVertex
 10
605.9675464118279
 20
87.50100442514153
 30
0.0
  0
VERTEX
  5
463
330
45F
100
AcDbEntity
  8
Ebene 2
 62
   250
420
  1709851
370
    13
100
AcDbVertex
100
AcDb2dVertex
 10
591.5329313157442
 20
87.50100442514153
 30
0.0
  0
VERTEX
  5
464
330
45F
100
AcDbEntity
  8
Ebene 2
 62
   250
420
  1709851
370
    13
100
AcDbVertex
100
AcDb2dVertex
 10
584.317863081245
 20
75.00184524948074
 30
0.0
  0
VERTEX
  5
465
330
45F
100
AcDbEntity
  8
Ebene 2
 62
   250
420
  1709851
370
    13
100
AcDbVertex
100
AcDb2dVertex
 10
591.5329313157442
 20
62.50096352494095
 30
0.0
  0
VERTEX
  5
466
330
45F
100
AcDbEntity
  8
Ebene 2
 62
   250
420
  1709851
370
    13
100
AcDbVertex
100
AcDb2dVertex
 10
605.9675464118279
 20
62.50096352494095
 30
0.0
  0
SEQEND
  5
467
330
45F
100
AcDbEntity
  8
Ebene 2
370
    13
  0
POLYLINE
  5
468
330
437
100
AcDbEntity
  8
Ebene 2
 62
   250
420
  1709851
370
    13
100
AcDb2dPolyline
 66
     1
 10
0.0
 20
0.0
 30
0.0
  0
VERTEX
  5
469
330
468
100
AcDbEntity
  8
Ebene 2
 62
   250
420
  1709851
370
    13
100
AcDbVertex
100
AcDb2dVertex
 10
605.9675464118279
 20
32.50070773883477
 30
0.0
  0
VERTEX
  5
46A
330
468
100
AcDbEntity
  8
Ebene 2
 62
   250
420
  1709851
370
    13
100
AcDbVertex
100
AcDb2dVertex
 10
613.1829591561028
 20
45.00158946337456
 30
0.0
  0
VERTEX
  5
46B
330
468
100
AcDbEntity
  8
Ebene 2
 62
   250
420
  1709851
370
    13
100
AcDbVertex
100
AcDb2dVertex
 10
605.9675464118279
 20
57.50074863903536
 30
0.0
  0
VERTEX
  5
46C
330
468
100
AcDbEntity
  8
Ebene 2
 62
   250
420
  1709851
370
    13
100
AcDbVertex
100
AcDb2dVertex
 10
591.5329313157442
 20
57.50074863903536
 30
0.0
  0
VERTEX
  5
46D
330
468
100
AcDbEntity
  8
Ebene 2
 62
   250
420
  1709851
370
    13
100
AcDbVertex
100
AcDb2dVertex
 10
584.317863081245
 20
45.00158946337456
 30
0.0
  0
VERTEX
  5
46E
330
468
100
AcDbEntity
  8
Ebene 2
 62
   250
420
  1709851
370
    13
100
AcDbVertex
100
AcDb2dVertex
 10
591.5329313157442
 20
32.50070773883477
 30
0.0
  0
VERTEX
  5
46F
330
468
100
AcDbEntity
  8
Ebene 2
 62
   250
420
  1709851
370
    13
100
AcDbVertex
100
AcDb2dVertex
 10
605.9675464118279
 20
32.50070773883477
 30
0.0
  0
SEQEND
  5
470
330
468
100
AcDbEntity
  8
Ebene 2
370
    13
  0
POLYLINE
  5
471
330
437
100
AcDbEntity
  8
Ebene 2
 62
   250
420
  1709851
370
    13
100
AcDb2dPolyline
 66
     1
 10
0.0
 20
0.0
 30
0.0
  0
VERTEX
  5
472
330
471
100
AcDbEntity
  8
Ebene 2
 62
   250
420
  1709851
370
    13
100
AcDbVertex
100
AcDb2dVertex
 10
605.9675464118279
 20
212.5008644163687
 30
0.0
  0
VERTEX
  5
473
330
471
100
AcDbEntity
  8
Ebene 2
 62
   250
420
  1709851
370
    13
100
AcDbVertex
100
AcDb2dVertex
 10
613.1829591561028
 20
225.0020906506842
 30
0.0
  0
VERTEX
  5
474
330
471
100
AcDbEntity
  8
Ebene 2
 62
   250
420
  1709851
370
    13
100
AcDbVertex
100
AcDb2dVertex
 10
605.9675464118279
 20
237.5009053165693
 30
0.0
  0
VERTEX
  5
475
330
471
100
AcDbEntity
  8
Ebene 2
 62
   250
420
  1709851
370
    13
100
AcDbVertex
100
AcDb2dVertex
 10
591.5329313157442
 20
237.5009053165693
 30
0.0
  0
VERTEX
  5
476
330
471
100
AcDbEntity
  8
Ebene 2
 62
   250
420
  1709851
370
    13
100
AcDbVertex
100
AcDb2dVertex
 10
584.317863081245
 20
225.0020906506842
 30
0.0
  0
VERTEX
  5
477
330
471
100
AcDbEntity
  8
Ebene 2
 62
   250
420
  1709851
370
    13
100
AcDbVertex
100
AcDb2dVertex
 10
591.5329313157442
 20
212.5008644163687
 30
0.0
  0
VERTEX
  5
478
330
471
100
AcDbEntity
  8
Ebene 2
 62
   250
420
  1709851
370
    13
100
AcDbVertex
100
AcDb2dVertex
 10
605.9675464118279
 20
212.5008644163687
 30
0.0
  0
SEQEND
  5
479
330
471
100
AcDbEntity
  8
Ebene 2
370
    13
  0
POLYLINE
  5
47A
330
437
100
AcDbEntity
  8
Ebene 2
 62
   250
420
  1709851
370
    13
100
AcDb2dPolyline
 66
     1
 10
0.0
 20
0.0
 30
0.0
  0
VERTEX
  5
47B
330
47A
100
AcDbEntity
  8
Ebene 2
 62
   250
420
  1709851
370
    13
100
AcDbVertex
100
AcDb2dVertex
 10
605.9675464118279
 20
242.5007756926991
 30
0.0
  0
VERTEX
  5
47C
330
47A
100
AcDbEntity
  8
Ebene 2
 62
   250
420
  1709851
370
    13
100
AcDbVertex
100
AcDb2dVertex
 10
613.1829591561028
 20
255.0020019270146
 30
0.0
  0
VERTEX
  5
47D
330
47A
100
AcDbEntity
  8
Ebene 2
 62
   250
420
  1709851
370
    13
100
AcDbVertex
100
AcDb2dVertex
 10
605.9675464118279
 20
267.5008165928996
 30
0.0
  0
VERTEX
  5
47E
330
47A
100
AcDbEntity
  8
Ebene 2
 62
   250
420
  1709851
370
    13
100
AcDbVertex
100
AcDb2dVertex
 10
591.5329313157442
 20
267.5008165928996
 30
0.0
  0
VERTEX
  5
47F
330
47A
100
AcDbEntity
  8
Ebene 2
 62
   250
420
  1709851
370
    13
100
AcDbVertex
100
AcDb2dVertex
 10
584.317863081245
 20
255.0020019270146
 30
0.0
  0
VERTEX
  5
480
330
47A
100
AcDbEntity
  8
Ebene 2
 62
   250
420
  1709851
370
    13
100
AcDbVertex
100
AcDb2dVertex
 10
591.5329313157442
 20
242.5007756926991
 30
0.0
  0
VERTEX
  5
481
330
47A
100
AcDbEntity
  8
Ebene 2
 62
   250
420
  1709851
370
    13
100
AcDbVertex
100
AcDb2dVertex
 10
605.9675464118279
 20
242.5007756926991
 30
0.0
  0
SEQEND
  5
482
330
47A
100
AcDbEntity
  8
Ebene 2
370
    13
  0
ENDBLK
  5
43A
330
437
100
AcDbEntity
  8
0
100
AcDbBlockEnd
  0
ENDSEC
  0
SECTION
  2
ENTITIES
  0
POLYLINE
  5
3C
330
1F
100
AcDbEntity
  8
Ebene 1
370
     0
100
AcDb2dPolyline
 66
     1
 10
0.0
 20
0.0
 30
0.0
  0
VERTEX
  5
3D
330
3C
100
AcDbEntity
  8
Ebene 1
370
     0
100
AcDbVertex
100
AcDb2dVertex
 10
24.21266380761844
 20
135.1225907334459
 30
0.0
  0
VERTEX
  5
3E
330
3C
100
AcDbEntity
  8
Ebene 1
370
     0
100
AcDbVertex
100
AcDb2dVertex
 10
17.5255568045269
 20
146.7091435130227
 30
0.0
  0
VERTEX
  5
3F
330
3C
100
AcDbEntity
  8
Ebene 1
370
     0
100
AcDbVertex
100
AcDb2dVertex
 10
24.21266380761844
 20
158.2932847241689
 30
0.0
  0
VERTEX
  5
40
330
3C
100
AcDbEntity
  8
Ebene 1
370
     0
100
AcDbVertex
100
AcDb2dVertex
 10
37.59118418599896
 20
158.2932847241689
 30
0.0
  0
VERTEX
  5
41
330
3C
100
AcDbEntity
  8
Ebene 1
370
     0
100
AcDbVertex
100
AcDb2dVertex
 10
44.2786356988663
 20
146.7091435130227
 30
0.0
  0
VERTEX
  5
42
330
3C
100
AcDbEntity
  8
Ebene 1
370
     0
100
AcDbVertex
100
AcDb2dVertex
 10
37.59118418599896
 20
135.1225907334459
 30
0.0
  0
VERTEX
  5
43
330
3C
100
AcDbEntity
  8
Ebene 1
370
     0
100
AcDbVertex
100
AcDb2dVertex
 10
24.21266380761844
 20
135.1225907334459
 30
0.0
  0
SEQEND
  5
44
330
3C
100
AcDbEntity
  8
Ebene 1
370
     0
  0
POLYLINE
  5
45
330
1F
100
AcDbEntity
  8
Ebene 1
370
     0
100
AcDb2dPolyline
 66
     1
 10
0.0
 20
0.0
 30
0.0
  0
VERTEX
  5
46
330
45
100
AcDbEntity
  8
Ebene 1
370
     0
100
AcDbVertex
100
AcDb2dVertex
 10
37.59118418599896
 20
107.3177234936009
 30
0.0
  0
VERTEX
  5
47
330
45
100
AcDbEntity
  8
Ebene 1
370
     0
100
AcDbVertex
100
AcDb2dVertex
 10
44.2786356988663
 20
118.9042762731776
 30
0.0
  0
VERTEX
  5
48
330
45
100
AcDbEntity
  8
Ebene 1
370
     0
100
AcDbVertex
100
AcDb2dVertex
 10
37.59118418599896
 20
130.4885897392117
 30
0.0
  0
VERTEX
  5
49
330
45
100
AcDbEntity
  8
Ebene 1
370
     0
100
AcDbVertex
100
AcDb2dVertex
 10
24.21266380761844
 20
130.4885897392117
 30
0.0
  0
VERTEX
  5
4A
330
45
100
AcDbEntity
  8
Ebene 1
370
     0
100
AcDbVertex
100
AcDb2dVertex
 10
17.5255568045269
 20
118.9042762731776
 30
0.0
  0
VERTEX
  5
4B
330
45
100
AcDbEntity
  8
Ebene 1
370
     0
100
AcDbVertex
100
AcDb2dVertex
 10
24.21266380761844
 20
107.3177234936009
 30
0.0
  0
VERTEX
  5
4C
330
45
100
AcDbEntity
  8
Ebene 1
370
     0
100
AcDbVertex
100
AcDb2dVertex
 10
37.59118418599896
 20
107.3177234936009
 30
0.0
  0
SEQEND
  5
4D
330
45
100
AcDbEntity
  8
Ebene 1
370
     0
  0
POLYLINE
  5
4E
330
1F
100
AcDbEntity
  8
Ebene 1
370
     0
100
AcDb2dPolyline
 66
     1
 10
0.0
 20
0.0
 30
0.0
  0
VERTEX
  5
4F
330
4E
100
AcDbEntity
  8
Ebene 1
370
     0
100
AcDbVertex
100
AcDb2dVertex
 10
37.59118418599896
 20
79.51285625375577
 30
0.0
  0
VERTEX
  5
50
330
4E
100
AcDbEntity
  8
Ebene 1
370
     0
100
AcDbVertex
100
AcDb2dVertex
 10
44.2786356988663
 20
91.09906452355672
 30
0.0
  0
VERTEX
  5
51
330
4E
100
AcDbEntity
  8
Ebene 1
370
     0
100
AcDbVertex
100
AcDb2dVertex
 10
37.59118418599896
 20
102.6838947542545
 30
0.0
  0
VERTEX
  5
52
330
4E
100
AcDbEntity
  8
Ebene 1
370
     0
100
AcDbVertex
100
AcDb2dVertex
 10
24.21266380761844
 20
102.6838947542545
 30
0.0
  0
VERTEX
  5
53
330
4E
100
AcDbEntity
  8
Ebene 1
370
     0
100
AcDbVertex
100
AcDb2dVertex
 10
17.5255568045269
 20
91.09906452355672
 30
0.0
  0
VERTEX
  5
54
330
4E
100
AcDbEntity
  8
Ebene 1
370
     0
100
AcDbVertex
100
AcDb2dVertex
 10
24.21266380761844
 20
79.51285625375577
 30
0.0
  0
VERTEX
  5
55
330
4E
100
AcDbEntity
  8
Ebene 1
370
     0
100
AcDbVertex
100
AcDb2dVertex
 10
37.59118418599896
 20
79.51285625375577
 30
0.0
  0
SEQEND
  5
56
330
4E
100
AcDbEntity
  8
Ebene 1
370
     0
  0
POLYLINE
  5
57
330
1F
100
AcDbEntity
  8
Ebene 1
370
     0
100
AcDb2dPolyline
 66
     1
 10
0.0
 20
0.0
 30
0.0
  0
VERTEX
  5
58
330
57
100
AcDbEntity
  8
Ebene 1
370
     0
100
AcDbVertex
100
AcDb2dVertex
 10
37.59118418599896
 20
51.70781675902278
 30
0.0
  0
VERTEX
  5
59
330
57
100
AcDbEntity
  8
Ebene 1
370
     0
100
AcDbVertex
100
AcDb2dVertex
 10
44.2786356988663
 20
63.29402502882373
 30
0.0
  0
VERTEX
  5
5A
330
57
100
AcDbEntity
  8
Ebene 1
370
     0
100
AcDbVertex
100
AcDb2dVertex
 10
37.59118418599896
 20
74.8791997692973
 30
0.0
  0
VERTEX
  5
5B
330
57
100
AcDbEntity
  8
Ebene 1
370
     0
100
AcDbVertex
100
AcDb2dVertex
 10
24.21266380761844
 20
74.8791997692973
 30
0.0
  0
VERTEX
  5
5C
330
57
100
AcDbEntity
  8
Ebene 1
370
     0
100
AcDbVertex
100
AcDb2dVertex
 10
17.5255568045269
 20
63.29402502882373
 30
0.0
  0
VERTEX
  5
5D
330
57
100
AcDbEntity
  8
Ebene 1
370
     0
100
AcDbVertex
100
AcDb2dVertex
 10
24.21266380761844
 20
51.70781675902278
 30
0.0
  0
VERTEX
  5
5E
330
57
100
AcDbEntity
  8
Ebene 1
370
     0
100
AcDbVertex
100
AcDb2dVertex
 10
37.59118418599896
 20
51.70781675902278
 30
0.0
  0
SEQEND
  5
5F
330
57
100
AcDbEntity
  8
Ebene 1
370
     0
  0
POLYLINE
  5
60
330
1F
100
AcDbEntity
  8
Ebene 1
370
     0
100
AcDb2dPolyline
 66
     1
 10
0.0
 20
0.0
 30
0.0
  0
VERTEX
  5
61
330
60
100
AcDbEntity
  8
Ebene 1
370
     0
100
AcDbVertex
100
AcDb2dVertex
 10
62.29081256170529
 20
121.2200709860795
 30
0.0
  0
VERTEX
  5
62
330
60
100
AcDbEntity
  8
Ebene 1
370
     0
100
AcDbVertex
100
AcDb2dVertex
 10
68.97791956479682
 20
132.8066237656562
 30
0.0
  0
VERTEX
  5
63
330
60
100
AcDbEntity
  8
Ebene 1
370
     0
100
AcDbVertex
100
AcDb2dVertex
 10
62.29081256170529
 20
144.3909372316903
 30
0.0
  0
VERTEX
  5
64
330
60
100
AcDbEntity
  8
Ebene 1
370
     0
100
AcDbVertex
100
AcDb2dVertex
 10
48.91229218332477
 20
144.3909372316903
 30
0.0
  0
VERTEX
  5
65
330
60
100
AcDbEntity
  8
Ebene 1
370
     0
100
AcDbVertex
100
AcDb2dVertex
 10
42.22518518023323
 20
132.8066237656562
 30
0.0
  0
VERTEX
  5
66
330
60
100
AcDbEntity
  8
Ebene 1
370
     0
100
AcDbVertex
100
AcDb2dVertex
 10
48.91229218332477
 20
121.2200709860795
 30
0.0
  0
VERTEX
  5
67
330
60
100
AcDbEntity
  8
Ebene 1
370
     0
100
AcDbVertex
100
AcDb2dVertex
 10
62.29081256170529
 20
121.2200709860795
 30
0.0
  0
SEQEND
  5
68
330
60
100
AcDbEntity
  8
Ebene 1
370
     0
  0
POLYLINE
  5
69
330
1F
100
AcDbEntity
  8
Ebene 1
370
     0
100
AcDb2dPolyline
 66
     1
 10
0.0
 20
0.0
 30
0.0
  0
VERTEX
  5
6A
330
69
100
AcDbEntity
  8
Ebene 1
370
     0
100
AcDbVertex
100
AcDb2dVertex
 10
62.29081256170529
 20
93.41520374623437
 30
0.0
  0
VERTEX
  5
6B
330
69
100
AcDbEntity
  8
Ebene 1
370
     0
100
AcDbVertex
100
AcDb2dVertex
 10
68.97791956479682
 20
105.0017565258111
 30
0.0
  0
VERTEX
  5
6C
330
69
100
AcDbEntity
  8
Ebene 1
370
     0
100
AcDbVertex
100
AcDb2dVertex
 10
62.29081256170529
 20
116.5860699918452
 30
0.0
  0
VERTEX
  5
6D
330
69
100
AcDbEntity
  8
Ebene 1
370
     0
100
AcDbVertex
100
AcDb2dVertex
 10
48.91229218332477
 20
116.5860699918452
 30
0.0
  0
VERTEX
  5
6E
330
69
100
AcDbEntity
  8
Ebene 1
370
     0
100
AcDbVertex
100
AcDb2dVertex
 10
42.22518518023323
 20
105.0017565258111
 30
0.0
  0
VERTEX
  5
6F
330
69
100
AcDbEntity
  8
Ebene 1
370
     0
100
AcDbVertex
100
AcDb2dVertex
 10
48.91229218332477
 20
93.41520374623437
 30
0.0
  0
VERTEX
  5
70
330
69
100
AcDbEntity
  8
Ebene 1
370
     0
100
AcDbVertex
100
AcDb2dVertex
 10
62.29081256170529
 20
93.41520374623437
 30
0.0
  0
SEQEND
  5
71
330
69
100
AcDbEntity
  8
Ebene 1
370
     0
  0
POLYLINE
  5
72
330
1F
100
AcDbEntity
  8
Ebene 1
370
     0
100
AcDb2dPolyline
 66
     1
 10
0.0
 20
0.0
 30
0.0
  0
VERTEX
  5
73
330
72
100
AcDbEntity
  8
Ebene 1
370
     0
100
AcDbVertex
100
AcDb2dVertex
 10
62.29081256170529
 20
65.61050876127717
 30
0.0
  0
VERTEX
  5
74
330
72
100
AcDbEntity
  8
Ebene 1
370
     0
100
AcDbVertex
100
AcDb2dVertex
 10
68.97791956479682
 20
77.19671703107812
 30
0.0
  0
VERTEX
  5
75
330
72
100
AcDbEntity
  8
Ebene 1
370
     0
100
AcDbVertex
100
AcDb2dVertex
 10
62.29081256170529
 20
88.7815472617759
 30
0.0
  0
VERTEX
  5
76
330
72
100
AcDbEntity
  8
Ebene 1
370
     0
100
AcDbVertex
100
AcDb2dVertex
 10
48.91229218332477
 20
88.7815472617759
 30
0.0
  0
VERTEX
  5
77
330
72
100
AcDbEntity
  8
Ebene 1
370
     0
100
AcDbVertex
100
AcDb2dVertex
 10
42.22518518023323
 20
77.19671703107812
 30
0.0
  0
VERTEX
  5
78
330
72
100
AcDbEntity
  8
Ebene 1
370
     0
100
AcDbVertex
100
AcDb2dVertex
 10
48.91229218332477
 20
65.61050876127717
 30
0.0
  0
VERTEX
  5
79
330
72
100
AcDbEntity
  8
Ebene 1
370
     0
100
AcDbVertex
100
AcDb2dVertex
 10
62.29081256170529
 20
65.61050876127717
 30
0.0
  0
SEQEND
  5
7A
330
72
100
AcDbEntity
  8
Ebene 1
370
     0
  0
POLYLINE
  5
7B
330
1F
100
AcDbEntity
  8
Ebene 1
370
     0
100
AcDb2dPolyline
 66
     1
 10
0.0
 20
0.0
 30
0.0
  0
VERTEX
  5
7C
330
7B
100
AcDbEntity
  8
Ebene 1
370
     0
100
AcDbVertex
100
AcDb2dVertex
 10
62.29081256170529
 20
37.80546926654418
 30
0.0
  0
VERTEX
  5
7D
330
7B
100
AcDbEntity
  8
Ebene 1
370
     0
100
AcDbVertex
100
AcDb2dVertex
 10
68.97791956479682
 20
49.39167753634514
 30
0.0
  0
VERTEX
  5
7E
330
7B
100
AcDbEntity
  8
Ebene 1
370
     0
100
AcDbVertex
100
AcDb2dVertex
 10
62.29081256170529
 20
60.9765077670429
 30
0.0
  0
VERTEX
  5
7F
330
7B
100
AcDbEntity
  8
Ebene 1
370
     0
100
AcDbVertex
100
AcDb2dVertex
 10
48.91229218332477
 20
60.9765077670429
 30
0.0
  0
VERTEX
  5
80
330
7B
100
AcDbEntity
  8
Ebene 1
370
     0
100
AcDbVertex
100
AcDb2dVertex
 10
42.22518518023323
 20
49.39167753634514
 30
0.0
  0
VERTEX
  5
81
330
7B
100
AcDbEntity
  8
Ebene 1
370
     0
100
AcDbVertex
100
AcDb2dVertex
 10
48.91229218332477
 20
37.80546926654418
 30
0.0
  0
VERTEX
  5
82
330
7B
100
AcDbEntity
  8
Ebene 1
370
     0
100
AcDbVertex
100
AcDb2dVertex
 10
62.29081256170529
 20
37.80546926654418
 30
0.0
  0
SEQEND
  5
83
330
7B
100
AcDbEntity
  8
Ebene 1
370
     0
  0
POLYLINE
  5
84
330
1F
100
AcDbEntity
  8
Ebene 1
370
     0
100
AcDb2dPolyline
 66
     1
 10
0.0
 20
0.0
 30
0.0
  0
VERTEX
  5
85
330
84
100
AcDbEntity
  8
Ebene 1
370
     0
100
AcDbVertex
100
AcDb2dVertex
 10
62.29081256170529
 20
149.0252827357004
 30
0.0
  0
VERTEX
  5
86
330
84
100
AcDbEntity
  8
Ebene 1
370
     0
100
AcDbVertex
100
AcDb2dVertex
 10
68.97791956479682
 20
160.6118355152771
 30
0.0
  0
VERTEX
  5
87
330
84
100
AcDbEntity
  8
Ebene 1
370
     0
100
AcDbVertex
100
AcDb2dVertex
 10
62.29081256170529
 20
172.1959767264233
 30
0.0
  0
VERTEX
  5
88
330
84
100
AcDbEntity
  8
Ebene 1
370
     0
100
AcDbVertex
100
AcDb2dVertex
 10
48.91229218332477
 20
172.1959767264233
 30
0.0
  0
VERTEX
  5
89
330
84
100
AcDbEntity
  8
Ebene 1
370
     0
100
AcDbVertex
100
AcDb2dVertex
 10
42.22518518023323
 20
160.6118355152771
 30
0.0
  0
VERTEX
  5
8A
330
84
100
AcDbEntity
  8
Ebene 1
370
     0
100
AcDbVertex
100
AcDb2dVertex
 10
48.91229218332477
 20
149.0252827357004
 30
0.0
  0
VERTEX
  5
8B
330
84
100
AcDbEntity
  8
Ebene 1
370
     0
100
AcDbVertex
100
AcDb2dVertex
 10
62.29081256170529
 20
149.0252827357004
 30
0.0
  0
SEQEND
  5
8C
330
84
100
AcDbEntity
  8
Ebene 1
370
     0
  0
POLYLINE
  5
8D
330
1F
100
AcDbEntity
  8
Ebene 1
370
     0
100
AcDb2dPolyline
 66
     1
 10
0.0
 20
0.0
 30
0.0
  0
VERTEX
  5
8E
330
8D
100
AcDbEntity
  8
Ebene 1
370
     0
100
AcDbVertex
100
AcDb2dVertex
 10
86.99044093741162
 20
135.1225907334459
 30
0.0
  0
VERTEX
  5
8F
330
8D
100
AcDbEntity
  8
Ebene 1
370
     0
100
AcDbVertex
100
AcDb2dVertex
 10
93.67789245027895
 20
146.7091435130227
 30
0.0
  0
VERTEX
  5
90
330
8D
100
AcDbEntity
  8
Ebene 1
370
     0
100
AcDbVertex
100
AcDb2dVertex
 10
86.99044093741162
 20
158.2932847241689
 30
0.0
  0
VERTEX
  5
91
330
8D
100
AcDbEntity
  8
Ebene 1
370
     0
100
AcDbVertex
100
AcDb2dVertex
 10
73.61192055903109
 20
158.2932847241689
 30
0.0
  0
VERTEX
  5
92
330
8D
100
AcDbEntity
  8
Ebene 1
370
     0
100
AcDbVertex
100
AcDb2dVertex
 10
66.92481355593955
 20
146.7091435130227
 30
0.0
  0
VERTEX
  5
93
330
8D
100
AcDbEntity
  8
Ebene 1
370
     0
100
AcDbVertex
100
AcDb2dVertex
 10
73.61192055903109
 20
135.1225907334459
 30
0.0
  0
VERTEX
  5
94
330
8D
100
AcDbEntity
  8
Ebene 1
370
     0
100
AcDbVertex
100
AcDb2dVertex
 10
86.99044093741162
 20
135.1225907334459
 30
0.0
  0
SEQEND
  5
95
330
8D
100
AcDbEntity
  8
Ebene 1
370
     0
  0
POLYLINE
  5
96
330
1F
100
AcDbEntity
  8
Ebene 1
370
     0
100
AcDb2dPolyline
 66
     1
 10
0.0
 20
0.0
 30
0.0
  0
VERTEX
  5
97
330
96
100
AcDbEntity
  8
Ebene 1
370
     0
100
AcDbVertex
100
AcDb2dVertex
 10
86.99044093741162
 20
107.3177234936009
 30
0.0
  0
VERTEX
  5
98
330
96
100
AcDbEntity
  8
Ebene 1
370
     0
100
AcDbVertex
100
AcDb2dVertex
 10
93.67789245027895
 20
118.9042762731776
 30
0.0
  0
VERTEX
  5
99
330
96
100
AcDbEntity
  8
Ebene 1
370
     0
100
AcDbVertex
100
AcDb2dVertex
 10
86.99044093741162
 20
130.4885897392117
 30
0.0
  0
VERTEX
  5
9A
330
96
100
AcDbEntity
  8
Ebene 1
370
     0
100
AcDbVertex
100
AcDb2dVertex
 10
73.61192055903109
 20
130.4885897392117
 30
0.0
  0
VERTEX
  5
9B
330
96
100
AcDbEntity
  8
Ebene 1
370
     0
100
AcDbVertex
100
AcDb2dVertex
 10
66.92481355593955
 20
118.9042762731776
 30
0.0
  0
VERTEX
  5
9C
330
96
100
AcDbEntity
  8
Ebene 1
370
     0
100
AcDbVertex
100
AcDb2dVertex
 10
73.61192055903109
 20
107.3177234936009
 30
0.0
  0
VERTEX
  5
9D
330
96
100
AcDbEntity
  8
Ebene 1
370
     0
100
AcDbVertex
100
AcDb2dVertex
 10
86.99044093741162
 20
107.3177234936009
 30
0.0
  0
SEQEND
  5
9E
330
96
100
AcDbEntity
  8
Ebene 1
370
     0
  0
POLYLINE
  5
9F
330
1F
100
AcDbEntity
  8
Ebene 1
370
     0
100
AcDb2dPolyline
 66
     1
 10
0.0
 20
0.0
 30
0.0
  0
VERTEX
  5
A0
330
9F
100
AcDbEntity
  8
Ebene 1
370
     0
100
AcDbVertex
100
AcDb2dVertex
 10
86.99044093741162
 20
79.51285625375577
 30
0.0
  0
VERTEX
  5
A1
330
9F
100
AcDbEntity
  8
Ebene 1
370
     0
100
AcDbVertex
100
AcDb2dVertex
 10
93.67789245027895
 20
91.09906452355672
 30
0.0
  0
VERTEX
  5
A2
330
9F
100
AcDbEntity
  8
Ebene 1
370
     0
100
AcDbVertex
100
AcDb2dVertex
 10
86.99044093741162
 20
102.6838947542545
 30
0.0
  0
VERTEX
  5
A3
330
9F
100
AcDbEntity
  8
Ebene 1
370
     0
100
AcDbVertex
100
AcDb2dVertex
 10
73.61192055903109
 20
102.6838947542545
 30
0.0
  0
VERTEX
  5
A4
330
9F
100
AcDbEntity
  8
Ebene 1
370
     0
100
AcDbVertex
100
AcDb2dVertex
 10
66.92481355593955
 20
91.09906452355672
 30
0.0
  0
VERTEX
  5
A5
330
9F
100
AcDbEntity
  8
Ebene 1
370
     0
100
AcDbVertex
100
AcDb2dVertex
 10
73.61192055903109
 20
79.51285625375577
 30
0.0
  0
VERTEX
  5
A6
330
9F
100
AcDbEntity
  8
Ebene 1
370
     0
100
AcDbVertex
100
AcDb2dVertex
 10
86.99044093741162
 20
79.51285625375577
 30
0.0
  0
SEQEND
  5
A7
330
9F
100
AcDbEntity
  8
Ebene 1
370
     0
  0
POLYLINE
  5
A8
330
1F
100
AcDbEntity
  8
Ebene 1
370
     0
100
AcDb2dPolyline
 66
     1
 10
0.0
 20
0.0
 30
0.0
  0
VERTEX
  5
A9
330
A8
100
AcDbEntity
  8
Ebene 1
370
     0
100
AcDbVertex
100
AcDb2dVertex
 10
86.99044093741162
 20
51.70781675902278
 30
0.0
  0
VERTEX
  5
AA
330
A8
100
AcDbEntity
  8
Ebene 1
370
     0
100
AcDbVertex
100
AcDb2dVertex
 10
93.67789245027895
 20
63.29402502882373
 30
0.0
  0
VERTEX
  5
AB
330
A8
100
AcDbEntity
  8
Ebene 1
370
     0
100
AcDbVertex
100
AcDb2dVertex
 10
86.99044093741162
 20
74.8791997692973
 30
0.0
  0
VERTEX
  5
AC
330
A8
100
AcDbEntity
  8
Ebene 1
370
     0
100
AcDbVertex
100
AcDb2dVertex
 10
73.61192055903109
 20
74.8791997692973
 30
0.0
  0
VERTEX
  5
AD
330
A8
100
AcDbEntity
  8
Ebene 1
370
     0
100
AcDbVertex
100
AcDb2dVertex
 10
66.92481355593955
 20
63.29402502882373
 30
0.0
  0
VERTEX
  5
AE
330
A8
100
AcDbEntity
  8
Ebene 1
370
     0
100
AcDbVertex
100
AcDb2dVertex
 10
73.61192055903109
 20
51.70781675902278
 30
0.0
  0
VERTEX
  5
AF
330
A8
100
AcDbEntity
  8
Ebene 1
370
     0
100
AcDbVertex
100
AcDb2dVertex
 10
86.99044093741162
 20
51.70781675902278
 30
0.0
  0
SEQEND
  5
B0
330
A8
100
AcDbEntity
  8
Ebene 1
370
     0
  0
POLYLINE
  5
B1
330
1F
100
AcDbEntity
  8
Ebene 1
370
     0
100
AcDb2dPolyline
 66
     1
 10
0.0
 20
0.0
 30
0.0
  0
VERTEX
  5
B2
330
B1
100
AcDbEntity
  8
Ebene 1
370
     0
100
AcDbVertex
100
AcDb2dVertex
 10
86.99044093741162
 20
23.90312177406558
 30
0.0
  0
VERTEX
  5
B3
330
B1
100
AcDbEntity
  8
Ebene 1
370
     0
100
AcDbVertex
100
AcDb2dVertex
 10
93.67789245027895
 20
35.48933004386654
 30
0.0
  0
VERTEX
  5
B4
330
B1
100
AcDbEntity
  8
Ebene 1
370
     0
100
AcDbVertex
100
AcDb2dVertex
 10
86.99044093741162
 20
47.07416027456431
 30
0.0
  0
VERTEX
  5
B5
330
B1
100
AcDbEntity
  8
Ebene 1
370
     0
100
AcDbVertex
100
AcDb2dVertex
 10
73.61192055903109
 20
47.07416027456431
 30
0.0
  0
VERTEX
  5
B6
330
B1
100
AcDbEntity
  8
Ebene 1
370
     0
100
AcDbVertex
100
AcDb2dVertex
 10
66.92481355593955
 20
35.48933004386654
 30
0.0
  0
VERTEX
  5
B7
330
B1
100
AcDbEntity
  8
Ebene 1
370
     0
100
AcDbVertex
100
AcDb2dVertex
 10
73.61192055903109
 20
23.90312177406558
 30
0.0
  0
VERTEX
  5
B8
330
B1
100
AcDbEntity
  8
Ebene 1
370
     0
100
AcDbVertex
100
AcDb2dVertex
 10
86.99044093741162
 20
23.90312177406558
 30
0.0
  0
SEQEND
  5
B9
330
B1
100
AcDbEntity
  8
Ebene 1
370
     0
  0
POLYLINE
  5
BA
330
1F
100
AcDbEntity
  8
Ebene 1
370
     0
100
AcDb2dPolyline
 66
     1
 10
0.0
 20
0.0
 30
0.0
  0
VERTEX
  5
BB
330
BA
100
AcDbEntity
  8
Ebene 1
370
     0
100
AcDbVertex
100
AcDb2dVertex
 10
86.99044093741162
 20
162.9276302281789
 30
0.0
  0
VERTEX
  5
BC
330
BA
100
AcDbEntity
  8
Ebene 1
370
     0
100
AcDbVertex
100
AcDb2dVertex
 10
93.67789245027895
 20
174.5141830077557
 30
0.0
  0
VERTEX
  5
BD
330
BA
100
AcDbEntity
  8
Ebene 1
370
     0
100
AcDbVertex
100
AcDb2dVertex
 10
86.99044093741162
 20
186.0984964737898
 30
0.0
  0
VERTEX
  5
BE
330
BA
100
AcDbEntity
  8
Ebene 1
370
     0
100
AcDbVertex
100
AcDb2dVertex
 10
73.61192055903109
 20
186.0984964737898
 30
0.0
  0
VERTEX
  5
BF
330
BA
100
AcDbEntity
  8
Ebene 1
370
     0
100
AcDbVertex
100
AcDb2dVertex
 10
66.92481355593955
 20
174.5141830077557
 30
0.0
  0
VERTEX
  5
C0
330
BA
100
AcDbEntity
  8
Ebene 1
370
     0
100
AcDbVertex
100
AcDb2dVertex
 10
73.61192055903109
 20
162.9276302281789
 30
0.0
  0
VERTEX
  5
C1
330
BA
100
AcDbEntity
  8
Ebene 1
370
     0
100
AcDbVertex
100
AcDb2dVertex
 10
86.99044093741162
 20
162.9276302281789
 30
0.0
  0
SEQEND
  5
C2
330
BA
100
AcDbEntity
  8
Ebene 1
370
     0
  0
POLYLINE
  5
C3
330
1F
100
AcDbEntity
  8
Ebene 1
370
     0
100
AcDb2dPolyline
 66
     1
 10
0.0
 20
0.0
 30
0.0
  0
VERTEX
  5
C4
330
C3
100
AcDbEntity
  8
Ebene 1
370
     0
100
AcDbVertex
100
AcDb2dVertex
 10
111.6897248033421
 20
121.2200709860795
 30
0.0
  0
VERTEX
  5
C5
330
C3
100
AcDbEntity
  8
Ebene 1
370
     0
100
AcDbVertex
100
AcDb2dVertex
 10
118.3773485710974
 20
132.8066237656562
 30
0.0
  0
VERTEX
  5
C6
330
C3
100
AcDbEntity
  8
Ebene 1
370
     0
100
AcDbVertex
100
AcDb2dVertex
 10
111.6897248033421
 20
144.3909372316903
 30
0.0
  0
VERTEX
  5
C7
330
C3
100
AcDbEntity
  8
Ebene 1
370
     0
100
AcDbVertex
100
AcDb2dVertex
 10
98.31154893473742
 20
144.3909372316903
 30
0.0
  0
VERTEX
  5
C8
330
C3
100
AcDbEntity
  8
Ebene 1
370
     0
100
AcDbVertex
100
AcDb2dVertex
 10
91.62444193164588
 20
132.8066237656562
 30
0.0
  0
VERTEX
  5
C9
330
C3
100
AcDbEntity
  8
Ebene 1
370
     0
100
AcDbVertex
100
AcDb2dVertex
 10
98.31154893473742
 20
121.2200709860795
 30
0.0
  0
VERTEX
  5
CA
330
C3
100
AcDbEntity
  8
Ebene 1
370
     0
100
AcDbVertex
100
AcDb2dVertex
 10
111.6897248033421
 20
121.2200709860795
 30
0.0
  0
SEQEND
  5
CB
330
C3
100
AcDbEntity
  8
Ebene 1
370
     0
  0
POLYLINE
  5
CC
330
1F
100
AcDbEntity
  8
Ebene 1
370
     0
100
AcDb2dPolyline
 66
     1
 10
0.0
 20
0.0
 30
0.0
  0
VERTEX
  5
CD
330
CC
100
AcDbEntity
  8
Ebene 1
370
     0
100
AcDbVertex
100
AcDb2dVertex
 10
111.6897248033421
 20
93.41520374623437
 30
0.0
  0
VERTEX
  5
CE
330
CC
100
AcDbEntity
  8
Ebene 1
370
     0
100
AcDbVertex
100
AcDb2dVertex
 10
118.3773485710974
 20
105.0017565258111
 30
0.0
  0
VERTEX
  5
CF
330
CC
100
AcDbEntity
  8
Ebene 1
370
     0
100
AcDbVertex
100
AcDb2dVertex
 10
111.6897248033421
 20
116.5860699918452
 30
0.0
  0
VERTEX
  5
D0
330
CC
100
AcDbEntity
  8
Ebene 1
370
     0
100
AcDbVertex
100
AcDb2dVertex
 10
98.31154893473742
 20
116.5860699918452
 30
0.0
  0
VERTEX
  5
D1
330
CC
100
AcDbEntity
  8
Ebene 1
370
     0
100
AcDbVertex
100
AcDb2dVertex
 10
91.62444193164588
 20
105.0017565258111
 30
0.0
  0
VERTEX
  5
D2
330
CC
100
AcDbEntity
  8
Ebene 1
370
     0
100
AcDbVertex
100
AcDb2dVertex
 10
98.31154893473742
 20
93.41520374623437
 30
0.0
  0
VERTEX
  5
D3
330
CC
100
AcDbEntity
  8
Ebene 1
370
     0
100
AcDbVertex
100
AcDb2dVertex
 10
111.6897248033421
 20
93.41520374623437
 30
0.0
  0
SEQEND
  5
D4
330
CC
100
AcDbEntity
  8
Ebene 1
370
     0
  0
POLYLINE
  5
D5
330
1F
100
AcDbEntity
  8
Ebene 1
370
     0
100
AcDb2dPolyline
 66
     1
 10
0.0
 20
0.0
 30
0.0
  0
VERTEX
  5
D6
330
D5
100
AcDbEntity
  8
Ebene 1
370
     0
100
AcDbVertex
100
AcDb2dVertex
 10
111.6897248033421
 20
65.61050876127717
 30
0.0
  0
VERTEX
  5
D7
330
D5
100
AcDbEntity
  8
Ebene 1
370
     0
100
AcDbVertex
100
AcDb2dVertex
 10
118.3773485710974
 20
77.19671703107812
 30
0.0
  0
VERTEX
  5
D8
330
D5
100
AcDbEntity
  8
Ebene 1
370
     0
100
AcDbVertex
100
AcDb2dVertex
 10
111.6897248033421
 20
88.7815472617759
 30
0.0
  0
VERTEX
  5
D9
330
D5
100
AcDbEntity
  8
Ebene 1
370
     0
100
AcDbVertex
100
AcDb2dVertex
 10
98.31154893473742
 20
88.7815472617759
 30
0.0
  0
VERTEX
  5
DA
330
D5
100
AcDbEntity
  8
Ebene 1
370
     0
100
AcDbVertex
100
AcDb2dVertex
 10
91.62444193164588
 20
77.19671703107812
 30
0.0
  0
VERTEX
  5
DB
330
D5
100
AcDbEntity
  8
Ebene 1
370
     0
100
AcDbVertex
100
AcDb2dVertex
 10
98.31154893473742
 20
65.61050876127717
 30
0.0
  0
VERTEX
  5
DC
330
D5
100
AcDbEntity
  8
Ebene 1
370
     0
100
AcDbVertex
100
AcDb2dVertex
 10
111.6897248033421
 20
65.61050876127717
 30
0.0
  0
SEQEND
  5
DD
330
D5
100
AcDbEntity
  8
Ebene 1
370
     0
  0
POLYLINE
  5
DE
330
1F
100
AcDbEntity
  8
Ebene 1
370
     0
100
AcDb2dPolyline
 66
     1
 10
0.0
 20
0.0
 30
0.0
  0
VERTEX
  5
DF
330
DE
100
AcDbEntity
  8
Ebene 1
370
     0
100
AcDbVertex
100
AcDb2dVertex
 10
111.6897248033421
 20
37.80546926654418
 30
0.0
  0
VERTEX
  5
E0
330
DE
100
AcDbEntity
  8
Ebene 1
370
     0
100
AcDbVertex
100
AcDb2dVertex
 10
118.3773485710974
 20
49.39167753634514
 30
0.0
  0
VERTEX
  5
E1
330
DE
100
AcDbEntity
  8
Ebene 1
370
     0
100
AcDbVertex
100
AcDb2dVertex
 10
111.6897248033421
 20
60.9765077670429
 30
0.0
  0
VERTEX
  5
E2
330
DE
100
AcDbEntity
  8
Ebene 1
370
     0
100
AcDbVertex
100
AcDb2dVertex
 10
98.31154893473742
 20
60.9765077670429
 30
0.0
  0
VERTEX
  5
E3
330
DE
100
AcDbEntity
  8
Ebene 1
370
     0
100
AcDbVertex
100
AcDb2dVertex
 10
91.62444193164588
 20
49.39167753634514
 30
0.0
  0
VERTEX
  5
E4
330
DE
100
AcDbEntity
  8
Ebene 1
370
     0
100
AcDbVertex
100
AcDb2dVertex
 10
98.31154893473742
 20
37.80546926654418
 30
0.0
  0
VERTEX
  5
E5
330
DE
100
AcDbEntity
  8
Ebene 1
370
     0
100
AcDbVertex
100
AcDb2dVertex
 10
111.6897248033421
 20
37.80546926654418
 30
0.0
  0
SEQEND
  5
E6
330
DE
100
AcDbEntity
  8
Ebene 1
370
     0
  0
POLYLINE
  5
E7
330
1F
100
AcDbEntity
  8
Ebene 1
370
     0
100
AcDb2dPolyline
 66
     1
 10
0.0
 20
0.0
 30
0.0
  0
VERTEX
  5
E8
330
E7
100
AcDbEntity
  8
Ebene 1
370
     0
100
AcDbVertex
100
AcDb2dVertex
 10
111.6897248033421
 20
10.00077428158698
 30
0.0
  0
VERTEX
  5
E9
330
E7
100
AcDbEntity
  8
Ebene 1
370
     0
100
AcDbVertex
100
AcDb2dVertex
 10
118.3773485710974
 20
21.58698255138794
 30
0.0
  0
VERTEX
  5
EA
330
E7
100
AcDbEntity
  8
Ebene 1
370
     0
100
AcDbVertex
100
AcDb2dVertex
 10
111.6897248033421
 20
33.17181278208571
 30
0.0
  0
VERTEX
  5
EB
330
E7
100
AcDbEntity
  8
Ebene 1
370
     0
100
AcDbVertex
100
AcDb2dVertex
 10
98.31154893473742
 20
33.17181278208571
 30
0.0
  0
VERTEX
  5
EC
330
E7
100
AcDbEntity
  8
Ebene 1
370
     0
100
AcDbVertex
100
AcDb2dVertex
 10
91.62444193164588
 20
21.58698255138794
 30
0.0
  0
VERTEX
  5
ED
330
E7
100
AcDbEntity
  8
Ebene 1
370
     0
100
AcDbVertex
100
AcDb2dVertex
 10
98.31154893473742
 20
10.00077428158698
 30
0.0
  0
VERTEX
  5
EE
330
E7
100
AcDbEntity
  8
Ebene 1
370
     0
100
AcDbVertex
100
AcDb2dVertex
 10
111.6897248033421
 20
10.00077428158698
 30
0.0
  0
SEQEND
  5
EF
330
E7
100
AcDbEntity
  8
Ebene 1
370
     0
  0
POLYLINE
  5
F0
330
1F
100
AcDbEntity
  8
Ebene 1
370
     0
100
AcDb2dPolyline
 66
     1
 10
0.0
 20
0.0
 30
0.0
  0
VERTEX
  5
F1
330
F0
100
AcDbEntity
  8
Ebene 1
370
     0
100
AcDbVertex
100
AcDb2dVertex
 10
111.6897248033421
 20
149.0252827357004
 30
0.0
  0
VERTEX
  5
F2
330
F0
100
AcDbEntity
  8
Ebene 1
370
     0
100
AcDbVertex
100
AcDb2dVertex
 10
118.3773485710974
 20
160.6118355152771
 30
0.0
  0
VERTEX
  5
F3
330
F0
100
AcDbEntity
  8
Ebene 1
370
     0
100
AcDbVertex
100
AcDb2dVertex
 10
111.6897248033421
 20
172.1959767264233
 30
0.0
  0
VERTEX
  5
F4
330
F0
100
AcDbEntity
  8
Ebene 1
370
     0
100
AcDbVertex
100
AcDb2dVertex
 10
98.31154893473742
 20
172.1959767264233
 30
0.0
  0
VERTEX
  5
F5
330
F0
100
AcDbEntity
  8
Ebene 1
370
     0
100
AcDbVertex
100
AcDb2dVertex
 10
91.62444193164588
 20
160.6118355152771
 30
0.0
  0
VERTEX
  5
F6
330
F0
100
AcDbEntity
  8
Ebene 1
370
     0
100
AcDbVertex
100
AcDb2dVertex
 10
98.31154893473742
 20
149.0252827357004
 30
0.0
  0
VERTEX
  5
F7
330
F0
100
AcDbEntity
  8
Ebene 1
370
     0
100
AcDbVertex
100
AcDb2dVertex
 10
111.6897248033421
 20
149.0252827357004
 30
0.0
  0
SEQEND
  5
F8
330
F0
100
AcDbEntity
  8
Ebene 1
370
     0
  0
POLYLINE
  5
F9
330
1F
100
AcDbEntity
  8
Ebene 1
370
     0
100
AcDb2dPolyline
 66
     1
 10
0.0
 20
0.0
 30
0.0
  0
VERTEX
  5
FA
330
F9
100
AcDbEntity
  8
Ebene 1
370
     0
100
AcDbVertex
100
AcDb2dVertex
 10
111.6897248033421
 20
176.8301499755455
 30
0.0
  0
VERTEX
  5
FB
330
F9
100
AcDbEntity
  8
Ebene 1
370
     0
100
AcDbVertex
100
AcDb2dVertex
 10
118.3773485710974
 20
188.4165305002343
 30
0.0
  0
VERTEX
  5
FC
330
F9
100
AcDbEntity
  8
Ebene 1
370
     0
100
AcDbVertex
100
AcDb2dVertex
 10
111.6897248033421
 20
200.0008439662684
 30
0.0
  0
VERTEX
  5
FD
330
F9
100
AcDbEntity
  8
Ebene 1
370
     0
100
AcDbVertex
100
AcDb2dVertex
 10
98.31154893473742
 20
200.0008439662684
 30
0.0
  0
VERTEX
  5
FE
330
F9
100
AcDbEntity
  8
Ebene 1
370
     0
100
AcDbVertex
100
AcDb2dVertex
 10
91.62444193164588
 20
188.4165305002343
 30
0.0
  0
VERTEX
  5
FF
330
F9
100
AcDbEntity
  8
Ebene 1
370
     0
100
AcDbVertex
100
AcDb2dVertex
 10
98.31154893473742
 20
176.8301499755455
 30
0.0
  0
VERTEX
  5
100
330
F9
100
AcDbEntity
  8
Ebene 1
370
     0
100
AcDbVertex
100
AcDb2dVertex
 10
111.6897248033421
 20
176.8301499755455
 30
0.0
  0
SEQEND
  5
101
330
F9
100
AcDbEntity
  8
Ebene 1
370
     0
  0
POLYLINE
  5
102
330
1F
100
AcDbEntity
  8
Ebene 1
370
     0
100
AcDb2dPolyline
 66
     1
 10
0.0
 20
0.0
 30
0.0
  0
VERTEX
  5
103
330
102
100
AcDbEntity
  8
Ebene 1
370
     0
100
AcDbVertex
100
AcDb2dVertex
 10
136.3896976888243
 20
135.1225907334459
 30
0.0
  0
VERTEX
  5
104
330
102
100
AcDbEntity
  8
Ebene 1
370
     0
100
AcDbVertex
100
AcDb2dVertex
 10
143.0773214565795
 20
146.7091435130227
 30
0.0
  0
VERTEX
  5
105
330
102
100
AcDbEntity
  8
Ebene 1
370
     0
100
AcDbVertex
100
AcDb2dVertex
 10
136.3896976888243
 20
158.2932847241689
 30
0.0
  0
VERTEX
  5
106
330
102
100
AcDbEntity
  8
Ebene 1
370
     0
100
AcDbVertex
100
AcDb2dVertex
 10
123.0110050555558
 20
158.2932847241689
 30
0.0
  0
VERTEX
  5
107
330
102
100
AcDbEntity
  8
Ebene 1
370
     0
100
AcDbVertex
100
AcDb2dVertex
 10
116.3240703073522
 20
146.7091435130227
 30
0.0
  0
VERTEX
  5
108
330
102
100
AcDbEntity
  8
Ebene 1
370
     0
100
AcDbVertex
100
AcDb2dVertex
 10
123.0110050555558
 20
135.1225907334459
 30
0.0
  0
VERTEX
  5
109
330
102
100
AcDbEntity
  8
Ebene 1
370
     0
100
AcDbVertex
100
AcDb2dVertex
 10
136.3896976888243
 20
135.1225907334459
 30
0.0
  0
SEQEND
  5
10A
330
102
100
AcDbEntity
  8
Ebene 1
370
     0
  0
POLYLINE
  5
10B
330
1F
100
AcDbEntity
  8
Ebene 1
370
     0
100
AcDb2dPolyline
 66
     1
 10
0.0
 20
0.0
 30
0.0
  0
VERTEX
  5
10C
330
10B
100
AcDbEntity
  8
Ebene 1
370
     0
100
AcDbVertex
100
AcDb2dVertex
 10
136.3896976888243
 20
107.3177234936009
 30
0.0
  0
VERTEX
  5
10D
330
10B
100
AcDbEntity
  8
Ebene 1
370
     0
100
AcDbVertex
100
AcDb2dVertex
 10
143.0773214565795
 20
118.9042762731776
 30
0.0
  0
VERTEX
  5
10E
330
10B
100
AcDbEntity
  8
Ebene 1
370
     0
100
AcDbVertex
100
AcDb2dVertex
 10
136.3896976888243
 20
130.4885897392117
 30
0.0
  0
VERTEX
  5
10F
330
10B
100
AcDbEntity
  8
Ebene 1
370
     0
100
AcDbVertex
100
AcDb2dVertex
 10
123.0110050555558
 20
130.4885897392117
 30
0.0
  0
VERTEX
  5
110
330
10B
100
AcDbEntity
  8
Ebene 1
370
     0
100
AcDbVertex
100
AcDb2dVertex
 10
116.3240703073522
 20
118.9042762731776
 30
0.0
  0
VERTEX
  5
111
330
10B
100
AcDbEntity
  8
Ebene 1
370
     0
100
AcDbVertex
100
AcDb2dVertex
 10
123.0110050555558
 20
107.3177234936009
 30
0.0
  0
VERTEX
  5
112
330
10B
100
AcDbEntity
  8
Ebene 1
370
     0
100
AcDbVertex
100
AcDb2dVertex
 10
136.3896976888243
 20
107.3177234936009
 30
0.0
  0
SEQEND
  5
113
330
10B
100
AcDbEntity
  8
Ebene 1
370
     0
  0
POLYLINE
  5
114
330
1F
100
AcDbEntity
  8
Ebene 1
370
     0
100
AcDb2dPolyline
 66
     1
 10
0.0
 20
0.0
 30
0.0
  0
VERTEX
  5
115
330
114
100
AcDbEntity
  8
Ebene 1
370
     0
100
AcDbVertex
100
AcDb2dVertex
 10
136.3896976888243
 20
79.51285625375577
 30
0.0
  0
VERTEX
  5
116
330
114
100
AcDbEntity
  8
Ebene 1
370
     0
100
AcDbVertex
100
AcDb2dVertex
 10
143.0773214565795
 20
91.09906452355672
 30
0.0
  0
VERTEX
  5
117
330
114
100
AcDbEntity
  8
Ebene 1
370
     0
100
AcDbVertex
100
AcDb2dVertex
 10
136.3896976888243
 20
102.6838947542545
 30
0.0
  0
VERTEX
  5
118
330
114
100
AcDbEntity
  8
Ebene 1
370
     0
100
AcDbVertex
100
AcDb2dVertex
 10
123.0110050555558
 20
102.6838947542545
 30
0.0
  0
VERTEX
  5
119
330
114
100
AcDbEntity
  8
Ebene 1
370
     0
100
AcDbVertex
100
AcDb2dVertex
 10
116.3240703073522
 20
91.09906452355672
 30
0.0
  0
VERTEX
  5
11A
330
114
100
AcDbEntity
  8
Ebene 1
370
     0
100
AcDbVertex
100
AcDb2dVertex
 10
123.0110050555558
 20
79.51285625375577
 30
0.0
  0
VERTEX
  5
11B
330
114
100
AcDbEntity
  8
Ebene 1
370
     0
100
AcDbVertex
100
AcDb2dVertex
 10
136.3896976888243
 20
79.51285625375577
 30
0.0
  0
SEQEND
  5
11C
330
114
100
AcDbEntity
  8
Ebene 1
370
     0
  0
POLYLINE
  5
11D
330
1F
100
AcDbEntity
  8
Ebene 1
370
     0
100
AcDb2dPolyline
 66
     1
 10
0.0
 20
0.0
 30
0.0
  0
VERTEX
  5
11E
330
11D
100
AcDbEntity
  8
Ebene 1
370
     0
100
AcDbVertex
100
AcDb2dVertex
 10
136.3896976888243
 20
51.70781675902278
 30
0.0
  0
VERTEX
  5
11F
330
11D
100
AcDbEntity
  8
Ebene 1
370
     0
100
AcDbVertex
100
AcDb2dVertex
 10
143.0773214565795
 20
63.29402502882373
 30
0.0
  0
VERTEX
  5
120
330
11D
100
AcDbEntity
  8
Ebene 1
370
     0
100
AcDbVertex
100
AcDb2dVertex
 10
136.3896976888243
 20
74.8791997692973
 30
0.0
  0
VERTEX
  5
121
330
11D
100
AcDbEntity
  8
Ebene 1
370
     0
100
AcDbVertex
100
AcDb2dVertex
 10
123.0110050555558
 20
74.8791997692973
 30
0.0
  0
VERTEX
  5
122
330
11D
100
AcDbEntity
  8
Ebene 1
370
     0
100
AcDbVertex
100
AcDb2dVertex
 10
116.3240703073522
 20
63.29402502882373
 30
0.0
  0
VERTEX
  5
123
330
11D
100
AcDbEntity
  8
Ebene 1
370
     0
100
AcDbVertex
100
AcDb2dVertex
 10
123.0110050555558
 20
51.70781675902278
 30
0.0
  0
VERTEX
  5
124
330
11D
100
AcDbEntity
  8
Ebene 1
370
     0
100
AcDbVertex
100
AcDb2dVertex
 10
136.3896976888243
 20
51.70781675902278
 30
0.0
  0
SEQEND
  5
125
330
11D
100
AcDbEntity
  8
Ebene 1
370
     0
  0
POLYLINE
  5
126
330
1F
100
AcDbEntity
  8
Ebene 1
370
     0
100
AcDb2dPolyline
 66
     1
 10
0.0
 20
0.0
 30
0.0
  0
VERTEX
  5
127
330
126
100
AcDbEntity
  8
Ebene 1
370
     0
100
AcDbVertex
100
AcDb2dVertex
 10
136.3896976888243
 20
23.90312177406558
 30
0.0
  0
VERTEX
  5
128
330
126
100
AcDbEntity
  8
Ebene 1
370
     0
100
AcDbVertex
100
AcDb2dVertex
 10
143.0773214565795
 20
35.48933004386654
 30
0.0
  0
VERTEX
  5
129
330
126
100
AcDbEntity
  8
Ebene 1
370
     0
100
AcDbVertex
100
AcDb2dVertex
 10
136.3896976888243
 20
47.07416027456431
 30
0.0
  0
VERTEX
  5
12A
330
126
100
AcDbEntity
  8
Ebene 1
370
     0
100
AcDbVertex
100
AcDb2dVertex
 10
123.0110050555558
 20
47.07416027456431
 30
0.0
  0
VERTEX
  5
12B
330
126
100
AcDbEntity
  8
Ebene 1
370
     0
100
AcDbVertex
100
AcDb2dVertex
 10
116.3240703073522
 20
35.48933004386654
 30
0.0
  0
VERTEX
  5
12C
330
126
100
AcDbEntity
  8
Ebene 1
370
     0
100
AcDbVertex
100
AcDb2dVertex
 10
123.0110050555558
 20
23.90312177406558
 30
0.0
  0
VERTEX
  5
12D
330
126
100
AcDbEntity
  8
Ebene 1
370
     0
100
AcDbVertex
100
AcDb2dVertex
 10
136.3896976888243
 20
23.90312177406558
 30
0.0
  0
SEQEND
  5
12E
330
126
100
AcDbEntity
  8
Ebene 1
370
     0
  0
POLYLINE
  5
12F
330
1F
100
AcDbEntity
  8
Ebene 1
370
     0
100
AcDb2dPolyline
 66
     1
 10
0.0
 20
0.0
 30
0.0
  0
VERTEX
  5
130
330
12F
100
AcDbEntity
  8
Ebene 1
370
     0
100
AcDbVertex
100
AcDb2dVertex
 10
136.3896976888243
 20
162.9276302281789
 30
0.0
  0
VERTEX
  5
131
330
12F
100
AcDbEntity
  8
Ebene 1
370
     0
100
AcDbVertex
100
AcDb2dVertex
 10
143.0773214565795
 20
174.5141830077557
 30
0.0
  0
VERTEX
  5
132
330
12F
100
AcDbEntity
  8
Ebene 1
370
     0
100
AcDbVertex
100
AcDb2dVertex
 10
136.3896976888243
 20
186.0984964737898
 30
0.0
  0
VERTEX
  5
133
330
12F
100
AcDbEntity
  8
Ebene 1
370
     0
100
AcDbVertex
100
AcDb2dVertex
 10
123.0110050555558
 20
186.0984964737898
 30
0.0
  0
VERTEX
  5
134
330
12F
100
AcDbEntity
  8
Ebene 1
370
     0
100
AcDbVertex
100
AcDb2dVertex
 10
116.3240703073522
 20
174.5141830077557
 30
0.0
  0
VERTEX
  5
135
330
12F
100
AcDbEntity
  8
Ebene 1
370
     0
100
AcDbVertex
100
AcDb2dVertex
 10
123.0110050555558
 20
162.9276302281789
 30
0.0
  0
VERTEX
  5
136
330
12F
100
AcDbEntity
  8
Ebene 1
370
     0
100
AcDbVertex
100
AcDb2dVertex
 10
136.3896976888243
 20
162.9276302281789
 30
0.0
  0
SEQEND
  5
137
330
12F
100
AcDbEntity
  8
Ebene 1
370
     0
  0
POLYLINE
  5
138
330
1F
100
AcDbEntity
  8
Ebene 1
370
     0
100
AcDb2dPolyline
 66
     1
 10
0.0
 20
0.0
 30
0.0
  0
VERTEX
  5
139
330
138
100
AcDbEntity
  8
Ebene 1
370
     0
100
AcDbVertex
100
AcDb2dVertex
 10
161.0889815547548
 20
121.2200709860795
 30
0.0
  0
VERTEX
  5
13A
330
138
100
AcDbEntity
  8
Ebene 1
370
     0
100
AcDbVertex
100
AcDb2dVertex
 10
167.77660532251
 20
132.8066237656562
 30
0.0
  0
VERTEX
  5
13B
330
138
100
AcDbEntity
  8
Ebene 1
370
     0
100
AcDbVertex
100
AcDb2dVertex
 10
161.0889815547548
 20
144.3909372316903
 30
0.0
  0
VERTEX
  5
13C
330
138
100
AcDbEntity
  8
Ebene 1
370
     0
100
AcDbVertex
100
AcDb2dVertex
 10
147.710977941038
 20
144.3909372316903
 30
0.0
  0
VERTEX
  5
13D
330
138
100
AcDbEntity
  8
Ebene 1
370
     0
100
AcDbVertex
100
AcDb2dVertex
 10
141.0233541732827
 20
132.8066237656562
 30
0.0
  0
VERTEX
  5
13E
330
138
100
AcDbEntity
  8
Ebene 1
370
     0
100
AcDbVertex
100
AcDb2dVertex
 10
147.710977941038
 20
121.2200709860795
 30
0.0
  0
VERTEX
  5
13F
330
138
100
AcDbEntity
  8
Ebene 1
370
     0
100
AcDbVertex
100
AcDb2dVertex
 10
161.0889815547548
 20
121.2200709860795
 30
0.0
  0
SEQEND
  5
140
330
138
100
AcDbEntity
  8
Ebene 1
370
     0
  0
POLYLINE
  5
141
330
1F
100
AcDbEntity
  8
Ebene 1
370
     0
100
AcDb2dPolyline
 66
     1
 10
0.0
 20
0.0
 30
0.0
  0
VERTEX
  5
142
330
141
100
AcDbEntity
  8
Ebene 1
370
     0
100
AcDbVertex
100
AcDb2dVertex
 10
161.0889815547548
 20
93.41520374623437
 30
0.0
  0
VERTEX
  5
143
330
141
100
AcDbEntity
  8
Ebene 1
370
     0
100
AcDbVertex
100
AcDb2dVertex
 10
167.77660532251
 20
105.0017565258111
 30
0.0
  0
VERTEX
  5
144
330
141
100
AcDbEntity
  8
Ebene 1
370
     0
100
AcDbVertex
100
AcDb2dVertex
 10
161.0889815547548
 20
116.5860699918452
 30
0.0
  0
VERTEX
  5
145
330
141
100
AcDbEntity
  8
Ebene 1
370
     0
100
AcDbVertex
100
AcDb2dVertex
 10
147.710977941038
 20
116.5860699918452
 30
0.0
  0
VERTEX
  5
146
330
141
100
AcDbEntity
  8
Ebene 1
370
     0
100
AcDbVertex
100
AcDb2dVertex
 10
141.0233541732827
 20
105.0017565258111
 30
0.0
  0
VERTEX
  5
147
330
141
100
AcDbEntity
  8
Ebene 1
370
     0
100
AcDbVertex
100
AcDb2dVertex
 10
147.710977941038
 20
93.41520374623437
 30
0.0
  0
VERTEX
  5
148
330
141
100
AcDbEntity
  8
Ebene 1
370
     0
100
AcDbVertex
100
AcDb2dVertex
 10
161.0889815547548
 20
93.41520374623437
 30
0.0
  0
SEQEND
  5
149
330
141
100
AcDbEntity
  8
Ebene 1
370
     0
  0
POLYLINE
  5
14A
330
1F
100
AcDbEntity
  8
Ebene 1
370
     0
100
AcDb2dPolyline
 66
     1
 10
0.0
 20
0.0
 30
0.0
  0
VERTEX
  5
14B
330
14A
100
AcDbEntity
  8
Ebene 1
370
     0
100
AcDbVertex
100
AcDb2dVertex
 10
161.0889815547548
 20
65.61050876127717
 30
0.0
  0
VERTEX
  5
14C
330
14A
100
AcDbEntity
  8
Ebene 1
370
     0
100
AcDbVertex
100
AcDb2dVertex
 10
167.77660532251
 20
77.19671703107812
 30
0.0
  0
VERTEX
  5
14D
330
14A
100
AcDbEntity
  8
Ebene 1
370
     0
100
AcDbVertex
100
AcDb2dVertex
 10
161.0889815547548
 20
88.7815472617759
 30
0.0
  0
VERTEX
  5
14E
330
14A
100
AcDbEntity
  8
Ebene 1
370
     0
100
AcDbVertex
100
AcDb2dVertex
 10
147.710977941038
 20
88.7815472617759
 30
0.0
  0
VERTEX
  5
14F
330
14A
100
AcDbEntity
  8
Ebene 1
370
     0
100
AcDbVertex
100
AcDb2dVertex
 10
141.0233541732827
 20
77.19671703107812
 30
0.0
  0
VERTEX
  5
150
330
14A
100
AcDbEntity
  8
Ebene 1
370
     0
100
AcDbVertex
100
AcDb2dVertex
 10
147.710977941038
 20
65.61050876127717
 30
0.0
  0
VERTEX
  5
151
330
14A
100
AcDbEntity
  8
Ebene 1
370
     0
100
AcDbVertex
100
AcDb2dVertex
 10
161.0889815547548
 20
65.61050876127717
 30
0.0
  0
SEQEND
  5
152
330
14A
100
AcDbEntity
  8
Ebene 1
370
     0
  0
POLYLINE
  5
153
330
1F
100
AcDbEntity
  8
Ebene 1
370
     0
100
AcDb2dPolyline
 66
     1
 10
0.0
 20
0.0
 30
0.0
  0
VERTEX
  5
154
330
153
100
AcDbEntity
  8
Ebene 1
370
     0
100
AcDbVertex
100
AcDb2dVertex
 10
161.0889815547548
 20
37.80546926654418
 30
0.0
  0
VERTEX
  5
155
330
153
100
AcDbEntity
  8
Ebene 1
370
     0
100
AcDbVertex
100
AcDb2dVertex
 10
167.77660532251
 20
49.39167753634514
 30
0.0
  0
VERTEX
  5
156
330
153
100
AcDbEntity
  8
Ebene 1
370
     0
100
AcDbVertex
100
AcDb2dVertex
 10
161.0889815547548
 20
60.9765077670429
 30
0.0
  0
VERTEX
  5
157
330
153
100
AcDbEntity
  8
Ebene 1
370
     0
100
AcDbVertex
100
AcDb2dVertex
 10
147.710977941038
 20
60.9765077670429
 30
0.0
  0
VERTEX
  5
158
330
153
100
AcDbEntity
  8
Ebene 1
370
     0
100
AcDbVertex
100
AcDb2dVertex
 10
141.0233541732827
 20
49.39167753634514
 30
0.0
  0
VERTEX
  5
159
330
153
100
AcDbEntity
  8
Ebene 1
370
     0
100
AcDbVertex
100
AcDb2dVertex
 10
147.710977941038
 20
37.80546926654418
 30
0.0
  0
VERTEX
  5
15A
330
153
100
AcDbEntity
  8
Ebene 1
370
     0
100
AcDbVertex
100
AcDb2dVertex
 10
161.0889815547548
 20
37.80546926654418
 30
0.0
  0
SEQEND
  5
15B
330
153
100
AcDbEntity
  8
Ebene 1
370
     0
  0
POLYLINE
  5
15C
330
1F
100
AcDbEntity
  8
Ebene 1
370
     0
100
AcDb2dPolyline
 66
     1
 10
0.0
 20
0.0
 30
0.0
  0
VERTEX
  5
15D
330
15C
100
AcDbEntity
  8
Ebene 1
370
     0
100
AcDbVertex
100
AcDb2dVertex
 10
161.0889815547548
 20
149.0252827357004
 30
0.0
  0
VERTEX
  5
15E
330
15C
100
AcDbEntity
  8
Ebene 1
370
     0
100
AcDbVertex
100
AcDb2dVertex
 10
167.77660532251
 20
160.6118355152771
 30
0.0
  0
VERTEX
  5
15F
330
15C
100
AcDbEntity
  8
Ebene 1
370
     0
100
AcDbVertex
100
AcDb2dVertex
 10
161.0889815547548
 20
172.1959767264233
 30
0.0
  0
VERTEX
  5
160
330
15C
100
AcDbEntity
  8
Ebene 1
370
     0
100
AcDbVertex
100
AcDb2dVertex
 10
147.710977941038
 20
172.1959767264233
 30
0.0
  0
VERTEX
  5
161
330
15C
100
AcDbEntity
  8
Ebene 1
370
     0
100
AcDbVertex
100
AcDb2dVertex
 10
141.0233541732827
 20
160.6118355152771
 30
0.0
  0
VERTEX
  5
162
330
15C
100
AcDbEntity
  8
Ebene 1
370
     0
100
AcDbVertex
100
AcDb2dVertex
 10
147.710977941038
 20
149.0252827357004
 30
0.0
  0
VERTEX
  5
163
330
15C
100
AcDbEntity
  8
Ebene 1
370
     0
100
AcDbVertex
100
AcDb2dVertex
 10
161.0889815547548
 20
149.0252827357004
 30
0.0
  0
SEQEND
  5
164
330
15C
100
AcDbEntity
  8
Ebene 1
370
     0
  0
POLYLINE
  5
165
330
1F
100
AcDbEntity
  8
Ebene 1
370
     0
100
AcDb2dPolyline
 66
     1
 10
0.0
 20
0.0
 30
0.0
  0
VERTEX
  5
166
330
165
100
AcDbEntity
  8
Ebene 1
370
     0
100
AcDbVertex
100
AcDb2dVertex
 10
185.7889544402369
 20
135.1225907334459
 30
0.0
  0
VERTEX
  5
167
330
165
100
AcDbEntity
  8
Ebene 1
370
     0
100
AcDbVertex
100
AcDb2dVertex
 10
192.4762336982164
 20
146.7091435130227
 30
0.0
  0
VERTEX
  5
168
330
165
100
AcDbEntity
  8
Ebene 1
370
     0
100
AcDbVertex
100
AcDb2dVertex
 10
185.7889544402369
 20
158.2932847241689
 30
0.0
  0
VERTEX
  5
169
330
165
100
AcDbEntity
  8
Ebene 1
370
     0
100
AcDbVertex
100
AcDb2dVertex
 10
172.4102618069685
 20
158.2932847241689
 30
0.0
  0
VERTEX
  5
16A
330
165
100
AcDbEntity
  8
Ebene 1
370
     0
100
AcDbVertex
100
AcDb2dVertex
 10
165.7233270587649
 20
146.7091435130227
 30
0.0
  0
VERTEX
  5
16B
330
165
100
AcDbEntity
  8
Ebene 1
370
     0
100
AcDbVertex
100
AcDb2dVertex
 10
172.4102618069685
 20
135.1225907334459
 30
0.0
  0
VERTEX
  5
16C
330
165
100
AcDbEntity
  8
Ebene 1
370
     0
100
AcDbVertex
100
AcDb2dVertex
 10
185.7889544402369
 20
135.1225907334459
 30
0.0
  0
SEQEND
  5
16D
330
165
100
AcDbEntity
  8
Ebene 1
370
     0
  0
POLYLINE
  5
16E
330
1F
100
AcDbEntity
  8
Ebene 1
370
     0
100
AcDb2dPolyline
 66
     1
 10
0.0
 20
0.0
 30
0.0
  0
VERTEX
  5
16F
330
16E
100
AcDbEntity
  8
Ebene 1
370
     0
100
AcDbVertex
100
AcDb2dVertex
 10
185.7889544402369
 20
107.3177234936009
 30
0.0
  0
VERTEX
  5
170
330
16E
100
AcDbEntity
  8
Ebene 1
370
     0
100
AcDbVertex
100
AcDb2dVertex
 10
192.4762336982164
 20
118.9042762731776
 30
0.0
  0
VERTEX
  5
171
330
16E
100
AcDbEntity
  8
Ebene 1
370
     0
100
AcDbVertex
100
AcDb2dVertex
 10
185.7889544402369
 20
130.4885897392117
 30
0.0
  0
VERTEX
  5
172
330
16E
100
AcDbEntity
  8
Ebene 1
370
     0
100
AcDbVertex
100
AcDb2dVertex
 10
172.4102618069685
 20
130.4885897392117
 30
0.0
  0
VERTEX
  5
173
330
16E
100
AcDbEntity
  8
Ebene 1
370
     0
100
AcDbVertex
100
AcDb2dVertex
 10
165.7233270587649
 20
118.9042762731776
 30
0.0
  0
VERTEX
  5
174
330
16E
100
AcDbEntity
  8
Ebene 1
370
     0
100
AcDbVertex
100
AcDb2dVertex
 10
172.4102618069685
 20
107.3177234936009
 30
0.0
  0
VERTEX
  5
175
330
16E
100
AcDbEntity
  8
Ebene 1
370
     0
100
AcDbVertex
100
AcDb2dVertex
 10
185.7889544402369
 20
107.3177234936009
 30
0.0
  0
SEQEND
  5
176
330
16E
100
AcDbEntity
  8
Ebene 1
370
     0
  0
POLYLINE
  5
177
330
1F
100
AcDbEntity
  8
Ebene 1
370
     0
100
AcDb2dPolyline
 66
     1
 10
0.0
 20
0.0
 30
0.0
  0
VERTEX
  5
178
330
177
100
AcDbEntity
  8
Ebene 1
370
     0
100
AcDbVertex
100
AcDb2dVertex
 10
185.7889544402369
 20
79.51285625375577
 30
0.0
  0
VERTEX
  5
179
330
177
100
AcDbEntity
  8
Ebene 1
370
     0
100
AcDbVertex
100
AcDb2dVertex
 10
192.4762336982164
 20
91.09906452355672
 30
0.0
  0
VERTEX
  5
17A
330
177
100
AcDbEntity
  8
Ebene 1
370
     0
100
AcDbVertex
100
AcDb2dVertex
 10
185.7889544402369
 20
102.6838947542545
 30
0.0
  0
VERTEX
  5
17B
330
177
100
AcDbEntity
  8
Ebene 1
370
     0
100
AcDbVertex
100
AcDb2dVertex
 10
172.4102618069685
 20
102.6838947542545
 30
0.0
  0
VERTEX
  5
17C
330
177
100
AcDbEntity
  8
Ebene 1
370
     0
100
AcDbVertex
100
AcDb2dVertex
 10
165.7233270587649
 20
91.09906452355672
 30
0.0
  0
VERTEX
  5
17D
330
177
100
AcDbEntity
  8
Ebene 1
370
     0
100
AcDbVertex
100
AcDb2dVertex
 10
172.4102618069685
 20
79.51285625375577
 30
0.0
  0
VERTEX
  5
17E
330
177
100
AcDbEntity
  8
Ebene 1
370
     0
100
AcDbVertex
100
AcDb2dVertex
 10
185.7889544402369
 20
79.51285625375577
 30
0.0
  0
SEQEND
  5
17F
330
177
100
AcDbEntity
  8
Ebene 1
370
     0
  0
POLYLINE
  5
180
330
1F
100
AcDbEntity
  8
Ebene 1
370
     0
100
AcDb2dPolyline
 66
     1
 10
0.0
 20
0.0
 30
0.0
  0
VERTEX
  5
181
330
180
100
AcDbEntity
  8
Ebene 1
370
     0
100
AcDbVertex
100
AcDb2dVertex
 10
185.7889544402369
 20
51.70781675902278
 30
0.0
  0
VERTEX
  5
182
330
180
100
AcDbEntity
  8
Ebene 1
370
     0
100
AcDbVertex
100
AcDb2dVertex
 10
192.4762336982164
 20
63.29402502882373
 30
0.0
  0
VERTEX
  5
183
330
180
100
AcDbEntity
  8
Ebene 1
370
     0
100
AcDbVertex
100
AcDb2dVertex
 10
185.7889544402369
 20
74.8791997692973
 30
0.0
  0
VERTEX
  5
184
330
180
100
AcDbEntity
  8
Ebene 1
370
     0
100
AcDbVertex
100
AcDb2dVertex
 10
172.4102618069685
 20
74.8791997692973
 30
0.0
  0
VERTEX
  5
185
330
180
100
AcDbEntity
  8
Ebene 1
370
     0
100
AcDbVertex
100
AcDb2dVertex
 10
165.7233270587649
 20
63.29402502882373
 30
0.0
  0
VERTEX
  5
186
330
180
100
AcDbEntity
  8
Ebene 1
370
     0
100
AcDbVertex
100
AcDb2dVertex
 10
172.4102618069685
 20
51.70781675902278
 30
0.0
  0
VERTEX
  5
187
330
180
100
AcDbEntity
  8
Ebene 1
370
     0
100
AcDbVertex
100
AcDb2dVertex
 10
185.7889544402369
 20
51.70781675902278
 30
0.0
  0
SEQEND
  5
188
330
180
100
AcDbEntity
  8
Ebene 1
370
     0
  0
HATCH
  5
189
330
1F
100
AcDbEntity
  8
Ebene 1
 62
   253
420
 10263967
100
AcDbHatch
 10
0.0
 20
0.0
 30
0.0
210
0.0
220
0.0
230
1.0
  2
SOLID
 70
     1
 71
     0
 91
       37
 92
        1
 93
        6
 72
     1
 10
24.21266380761844
 20
135.1225907334459
 11
17.5255568045269
 21
146.7091435130227
 72
     1
 10
17.5255568045269
 20
146.7091435130227
 11
24.21266380761844
 21
158.2932847241689
 72
     1
 10
24.21266380761844
 20
158.2932847241689
 11
37.59118418599896
 21
158.2932847241689
 72
     1
 10
37.59118418599896
 20
158.2932847241689
 11
44.2786356988663
 21
146.7091435130227
 72
     1
 10
44.2786356988663
 20
146.7091435130227
 11
37.59118418599896
 21
135.1225907334459
 72
     1
 10
37.59118418599896
 20
135.1225907334459
 11
24.21266380761844
 21
135.1225907334459
 97
        0
 92
        1
 93
        6
 72
     1
 10
37.59118418599896
 20
107.3177234936009
 11
44.2786356988663
 21
118.9042762731776
 72
     1
 10
44.2786356988663
 20
118.9042762731776
 11
37.59118418599896
 21
130.4885897392117
 72
     1
 10
37.59118418599896
 20
130.4885897392117
 11
24.21266380761844
 21
130.4885897392117
 72
     1
 10
24.21266380761844
 20
130.4885897392117
 11
17.5255568045269
 21
118.9042762731776
 72
     1
 10
17.5255568045269
 20
118.9042762731776
 11
24.21266380761844
 21
107.3177234936009
 72
     1
 10
24.21266380761844
 20
107.3177234936009
 11
37.59118418599896
 21
107.3177234936009
 97
        0
 92
        1
 93
        6
 72
     1
 10
37.59118418599896
 20
79.51285625375577
 11
44.2786356988663
 21
91.09906452355672
 72
     1
 10
44.2786356988663
 20
91.09906452355672
 11
37.59118418599896
 21
102.6838947542545
 72
     1
 10
37.59118418599896
 20
102.6838947542545
 11
24.21266380761844
 21
102.6838947542545
 72
     1
 10
24.21266380761844
 20
102.6838947542545
 11
17.5255568045269
 21
91.09906452355672
 72
     1
 10
17.5255568045269
 20
91.09906452355672
 11
24.21266380761844
 21
79.51285625375577
 72
     1
 10
24.21266380761844
 20
79.51285625375577
 11
37.59118418599896
 21
79.51285625375577
 97
        0
 92
        1
 93
        6
 72
     1
 10
37.59118418599896
 20
51.70781675902278
 11
44.2786356988663
 21
63.29402502882373
 72
     1
 10
44.2786356988663
 20
63.29402502882373
 11
37.59118418599896
 21
74.8791997692973
 72
     1
 10
37.59118418599896
 20
74.8791997692973
 11
24.21266380761844
 21
74.8791997692973
 72
     1
 10
24.21266380761844
 20
74.8791997692973
 11
17.5255568045269
 21
63.29402502882373
 72
     1
 10
17.5255568045269
 20
63.29402502882373
 11
24.21266380761844
 21
51.70781675902278
 72
     1
 10
24.21266380761844
 20
51.70781675902278
 11
37.59118418599896
 21
51.70781675902278
 97
        0
 92
        1
 93
        6
 72
     1
 10
62.29081256170529
 20
121.2200709860795
 11
68.97791956479682
 21
132.8066237656562
 72
     1
 10
68.97791956479682
 20
132.8066237656562
 11
62.29081256170529
 21
144.3909372316903
 72
     1
 10
62.29081256170529
 20
144.3909372316903
 11
48.91229218332477
 21
144.3909372316903
 72
     1
 10
48.91229218332477
 20
144.3909372316903
 11
42.22518518023323
 21
132.8066237656562
 72
     1
 10
42.22518518023323
 20
132.8066237656562
 11
48.91229218332477
 21
121.2200709860795
 72
     1
 10
48.91229218332477
 20
121.2200709860795
 11
62.29081256170529
 21
121.2200709860795
 97
        0
 92
        1
 93
        6
 72
     1
 10
62.29081256170529
 20
93.41520374623437
 11
68.97791956479682
 21
105.0017565258111
 72
     1
 10
68.97791956479682
 20
105.0017565258111
 11
62.29081256170529
 21
116.5860699918452
 72
     1
 10
62.29081256170529
 20
116.5860699918452
 11
48.91229218332477
 21
116.5860699918452
 72
     1
 10
48.91229218332477
 20
116.5860699918452
 11
42.22518518023323
 21
105.0017565258111
 72
     1
 10
42.22518518023323
 20
105.0017565258111
 11
48.91229218332477
 21
93.41520374623437
 72
     1
 10
48.91229218332477
 20
93.41520374623437
 11
62.29081256170529
 21
93.41520374623437
 97
        0
 92
        1
 93
        6
 72
     1
 10
62.29081256170529
 20
65.61050876127717
 11
68.97791956479682
 21
77.19671703107812
 72
     1
 10
68.97791956479682
 20
77.19671703107812
 11
62.29081256170529
 21
88.7815472617759
 72
     1
 10
62.29081256170529
 20
88.7815472617759
 11
48.91229218332477
 21
88.7815472617759
 72
     1
 10
48.91229218332477
 20
88.7815472617759
 11
42.22518518023323
 21
77.19671703107812
 72
     1
 10
42.22518518023323
 20
77.19671703107812
 11
48.91229218332477
 21
65.61050876127717
 72
     1
 10
48.91229218332477
 20
65.61050876127717
 11
62.29081256170529
 21
65.61050876127717
 97
        0
 92
        1
 93
        6
 72
     1
 10
62.29081256170529
 20
37.80546926654418
 11
68.97791956479682
 21
49.39167753634514
 72
     1
 10
68.97791956479682
 20
49.39167753634514
 11
62.29081256170529
 21
60.9765077670429
 72
     1
 10
62.29081256170529
 20
60.9765077670429
 11
48.91229218332477
 21
60.9765077670429
 72
     1
 10
48.91229218332477
 20
60.9765077670429
 11
42.22518518023323
 21
49.39167753634514
 72
     1
 10
42.22518518023323
 20
49.39167753634514
 11
48.91229218332477
 21
37.80546926654418
 72
     1
 10
48.91229218332477
 20
37.80546926654418
 11
62.29081256170529
 21
37.80546926654418
 97
        0
 92
        1
 93
        6
 72
     1
 10
62.29081256170529
 20
149.0252827357004
 11
68.97791956479682
 21
160.6118355152771
 72
     1
 10
68.97791956479682
 20
160.6118355152771
 11
62.29081256170529
 21
172.1959767264233
 72
     1
 10
62.29081256170529
 20
172.1959767264233
 11
48.91229218332477
 21
172.1959767264233
 72
     1
 10
48.91229218332477
 20
172.1959767264233
 11
42.22518518023323
 21
160.6118355152771
 72
     1
 10
42.22518518023323
 20
160.6118355152771
 11
48.91229218332477
 21
149.0252827357004
 72
     1
 10
48.91229218332477
 20
149.0252827357004
 11
62.29081256170529
 21
149.0252827357004
 97
        0
 92
        1
 93
        6
 72
     1
 10
86.99044093741162
 20
135.1225907334459
 11
93.67789245027895
 21
146.7091435130227
 72
     1
 10
93.67789245027895
 20
146.7091435130227
 11
86.99044093741162
 21
158.2932847241689
 72
     1
 10
86.99044093741162
 20
158.2932847241689
 11
73.61192055903109
 21
158.2932847241689
 72
     1
 10
73.61192055903109
 20
158.2932847241689
 11
66.92481355593955
 21
146.7091435130227
 72
     1
 10
66.92481355593955
 20
146.7091435130227
 11
73.61192055903109
 21
135.1225907334459
 72
     1
 10
73.61192055903109
 20
135.1225907334459
 11
86.99044093741162
 21
135.1225907334459
 97
        0
 92
        1
 93
        6
 72
     1
 10
86.99044093741162
 20
107.3177234936009
 11
93.67789245027895
 21
118.9042762731776
 72
     1
 10
93.67789245027895
 20
118.9042762731776
 11
86.99044093741162
 21
130.4885897392117
 72
     1
 10
86.99044093741162
 20
130.4885897392117
 11
73.61192055903109
 21
130.4885897392117
 72
     1
 10
73.61192055903109
 20
130.4885897392117
 11
66.92481355593955
 21
118.9042762731776
 72
     1
 10
66.92481355593955
 20
118.9042762731776
 11
73.61192055903109
 21
107.3177234936009
 72
     1
 10
73.61192055903109
 20
107.3177234936009
 11
86.99044093741162
 21
107.3177234936009
 97
        0
 92
        1
 93
        6
 72
     1
 10
86.99044093741162
 20
79.51285625375577
 11
93.67789245027895
 21
91.09906452355672
 72
     1
 10
93.67789245027895
 20
91.09906452355672
 11
86.99044093741162
 21
102.6838947542545
 72
     1
 10
86.99044093741162
 20
102.6838947542545
 11
73.61192055903109
 21
102.6838947542545
 72
     1
 10
73.61192055903109
 20
102.6838947542545
 11
66.92481355593955
 21
91.09906452355672
 72
     1
 10
66.92481355593955
 20
91.09906452355672
 11
73.61192055903109
 21
79.51285625375577
 72
     1
 10
73.61192055903109
 20
79.51285625375577
 11
86.99044093741162
 21
79.51285625375577
 97
        0
 92
        1
 93
        6
 72
     1
 10
86.99044093741162
 20
51.70781675902278
 11
93.67789245027895
 21
63.29402502882373
 72
     1
 10
93.67789245027895
 20
63.29402502882373
 11
86.99044093741162
 21
74.8791997692973
 72
     1
 10
86.99044093741162
 20
74.8791997692973
 11
73.61192055903109
 21
74.8791997692973
 72
     1
 10
73.61192055903109
 20
74.8791997692973
 11
66.92481355593955
 21
63.29402502882373
 72
     1
 10
66.92481355593955
 20
63.29402502882373
 11
73.61192055903109
 21
51.70781675902278
 72
     1
 10
73.61192055903109
 20
51.70781675902278
 11
86.99044093741162
 21
51.70781675902278
 97
        0
 92
        1
 93
        6
 72
     1
 10
86.99044093741162
 20
23.90312177406558
 11
93.67789245027895
 21
35.48933004386654
 72
     1
 10
93.67789245027895
 20
35.48933004386654
 11
86.99044093741162
 21
47.07416027456431
 72
     1
 10
86.99044093741162
 20
47.07416027456431
 11
73.61192055903109
 21
47.07416027456431
 72
     1
 10
73.61192055903109
 20
47.07416027456431
 11
66.92481355593955
 21
35.48933004386654
 72
     1
 10
66.92481355593955
 20
35.48933004386654
 11
73.61192055903109
 21
23.90312177406558
 72
     1
 10
73.61192055903109
 20
23.90312177406558
 11
86.99044093741162
 21
23.90312177406558
 97
        0
 92
        1
 93
        6
 72
     1
 10
86.99044093741162
 20
162.9276302281789
 11
93.67789245027895
 21
174.5141830077557
 72
     1
 10
93.67789245027895
 20
174.5141830077557
 11
86.99044093741162
 21
186.0984964737898
 72
     1
 10
86.99044093741162
 20
186.0984964737898
 11
73.61192055903109
 21
186.0984964737898
 72
     1
 10
73.61192055903109
 20
186.0984964737898
 11
66.92481355593955
 21
174.5141830077557
 72
     1
 10
66.92481355593955
 20
174.5141830077557
 11
73.61192055903109
 21
162.9276302281789
 72
     1
 10
73.61192055903109
 20
162.9276302281789
 11
86.99044093741162
 21
162.9276302281789
 97
        0
 92
        1
 93
        6
 72
     1
 10
111.6897248033421
 20
121.2200709860795
 11
118.3773485710974
 21
132.8066237656562
 72
     1
 10
118.3773485710974
 20
132.8066237656562
 11
111.6897248033421
 21
144.3909372316903
 72
     1
 10
111.6897248033421
 20
144.3909372316903
 11
98.31154893473742
 21
144.3909372316903
 72
     1
 10
98.31154893473742
 20
144.3909372316903
 11
91.62444193164588
 21
132.8066237656562
 72
     1
 10
91.62444193164588
 20
132.8066237656562
 11
98.31154893473742
 21
121.2200709860795
 72
     1
 10
98.31154893473742
 20
121.2200709860795
 11
111.6897248033421
 21
121.2200709860795
 97
        0
 92
        1
 93
        6
 72
     1
 10
111.6897248033421
 20
93.41520374623437
 11
118.3773485710974
 21
105.0017565258111
 72
     1
 10
118.3773485710974
 20
105.0017565258111
 11
111.6897248033421
 21
116.5860699918452
 72
     1
 10
111.6897248033421
 20
116.5860699918452
 11
98.31154893473742
 21
116.5860699918452
 72
     1
 10
98.31154893473742
 20
116.5860699918452
 11
91.62444193164588
 21
105.0017565258111
 72
     1
 10
91.62444193164588
 20
105.0017565258111
 11
98.31154893473742
 21
93.41520374623437
 72
     1
 10
98.31154893473742
 20
93.41520374623437
 11
111.6897248033421
 21
93.41520374623437
 97
        0
 92
        1
 93
        6
 72
     1
 10
111.6897248033421
 20
65.61050876127717
 11
118.3773485710974
 21
77.19671703107812
 72
     1
 10
118.3773485710974
 20
77.19671703107812
 11
111.6897248033421
 21
88.7815472617759
 72
     1
 10
111.6897248033421
 20
88.7815472617759
 11
98.31154893473742
 21
88.7815472617759
 72
     1
 10
98.31154893473742
 20
88.7815472617759
 11
91.62444193164588
 21
77.19671703107812
 72
     1
 10
91.62444193164588
 20
77.19671703107812
 11
98.31154893473742
 21
65.61050876127717
 72
     1
 10
98.31154893473742
 20
65.61050876127717
 11
111.6897248033421
 21
65.61050876127717
 97
        0
 92
        1
 93
        6
 72
     1
 10
111.6897248033421
 20
37.80546926654418
 11
118.3773485710974
 21
49.39167753634514
 72
     1
 10
118.3773485710974
 20
49.39167753634514
 11
111.6897248033421
 21
60.9765077670429
 72
     1
 10
111.6897248033421
 20
60.9765077670429
 11
98.31154893473742
 21
60.9765077670429
 72
     1
 10
98.31154893473742
 20
60.9765077670429
 11
91.62444193164588
 21
49.39167753634514
 72
     1
 10
91.62444193164588
 20
49.39167753634514
 11
98.31154893473742
 21
37.80546926654418
 72
     1
 10
98.31154893473742
 20
37.80546926654418
 11
111.6897248033421
 21
37.80546926654418
 97
        0
 92
        1
 93
        6
 72
     1
 10
111.6897248033421
 20
10.00077428158698
 11
118.3773485710974
 21
21.58698255138794
 72
     1
 10
118.3773485710974
 20
21.58698255138794
 11
111.6897248033421
 21
33.17181278208571
 72
     1
 10
111.6897248033421
 20
33.17181278208571
 11
98.31154893473742
 21
33.17181278208571
 72
     1
 10
98.31154893473742
 20
33.17181278208571
 11
91.62444193164588
 21
21.58698255138794
 72
     1
 10
91.62444193164588
 20
21.58698255138794
 11
98.31154893473742
 21
10.00077428158698
 72
     1
 10
98.31154893473742
 20
10.00077428158698
 11
111.6897248033421
 21
10.00077428158698
 97
        0
 92
        1
 93
        6
 72
     1
 10
111.6897248033421
 20
149.0252827357004
 11
118.3773485710974
 21
160.6118355152771
 72
     1
 10
118.3773485710974
 20
160.6118355152771
 11
111.6897248033421
 21
172.1959767264233
 72
     1
 10
111.6897248033421
 20
172.1959767264233
 11
98.31154893473742
 21
172.1959767264233
 72
     1
 10
98.31154893473742
 20
172.1959767264233
 11
91.62444193164588
 21
160.6118355152771
 72
     1
 10
91.62444193164588
 20
160.6118355152771
 11
98.31154893473742
 21
149.0252827357004
 72
     1
 10
98.31154893473742
 20
149.0252827357004
 11
111.6897248033421
 21
149.0252827357004
 97
        0
 92
        1
 93
        6
 72
     1
 10
111.6897248033421
 20
176.8301499755455
 11
118.3773485710974
 21
188.4165305002343
 72
     1
 10
118.3773485710974
 20
188.4165305002343
 11
111.6897248033421
 21
200.0008439662684
 72
     1
 10
111.6897248033421
 20
200.0008439662684
 11
98.31154893473742
 21
200.0008439662684
 72
     1
 10
98.31154893473742
 20
200.0008439662684
 11
91.62444193164588
 21
188.4165305002343
 72
     1
 10
91.62444193164588
 20
188.4165305002343
 11
98.31154893473742
 21
176.8301499755455
 72
     1
 10
98.31154893473742
 20
176.8301499755455
 11
111.6897248033421
 21
176.8301499755455
 97
        0
 92
        1
 93
        6
 72
     1
 10
136.3896976888243
 20
135.1225907334459
 11
143.0773214565795
 21
146.7091435130227
 72
     1
 10
143.0773214565795
 20
146.7091435130227
 11
136.3896976888243
 21
158.2932847241689
 72
     1
 10
136.3896976888243
 20
158.2932847241689
 11
123.0110050555558
 21
158.2932847241689
 72
     1
 10
123.0110050555558
 20
158.2932847241689
 11
116.3240703073522
 21
146.7091435130227
 72
     1
 10
116.3240703073522
 20
146.7091435130227
 11
123.0110050555558
 21
135.1225907334459
 72
     1
 10
123.0110050555558
 20
135.1225907334459
 11
136.3896976888243
 21
135.1225907334459
 97
        0
 92
        1
 93
        6
 72
     1
 10
136.3896976888243
 20
107.3177234936009
 11
143.0773214565795
 21
118.9042762731776
 72
     1
 10
143.0773214565795
 20
118.9042762731776
 11
136.3896976888243
 21
130.4885897392117
 72
     1
 10
136.3896976888243
 20
130.4885897392117
 11
123.0110050555558
 21
130.4885897392117
 72
     1
 10
123.0110050555558
 20
130.4885897392117
 11
116.3240703073522
 21
118.9042762731776
 72
     1
 10
116.3240703073522
 20
118.9042762731776
 11
123.0110050555558
 21
107.3177234936009
 72
     1
 10
123.0110050555558
 20
107.3177234936009
 11
136.3896976888243
 21
107.3177234936009
 97
        0
 92
        1
 93
        6
 72
     1
 10
136.3896976888243
 20
79.51285625375577
 11
143.0773214565795
 21
91.09906452355672
 72
     1
 10
143.0773214565795
 20
91.09906452355672
 11
136.3896976888243
 21
102.6838947542545
 72
     1
 10
136.3896976888243
 20
102.6838947542545
 11
123.0110050555558
 21
102.6838947542545
 72
     1
 10
123.0110050555558
 20
102.6838947542545
 11
116.3240703073522
 21
91.09906452355672
 72
     1
 10
116.3240703073522
 20
91.09906452355672
 11
123.0110050555558
 21
79.51285625375577
 72
     1
 10
123.0110050555558
 20
79.51285625375577
 11
136.3896976888243
 21
79.51285625375577
 97
        0
 92
        1
 93
        6
 72
     1
 10
136.3896976888243
 20
51.70781675902278
 11
143.0773214565795
 21
63.29402502882373
 72
     1
 10
143.0773214565795
 20
63.29402502882373
 11
136.3896976888243
 21
74.8791997692973
 72
     1
 10
136.3896976888243
 20
74.8791997692973
 11
123.0110050555558
 21
74.8791997692973
 72
     1
 10
123.0110050555558
 20
74.8791997692973
 11
116.3240703073522
 21
63.29402502882373
 72
     1
 10
116.3240703073522
 20
63.29402502882373
 11
123.0110050555558
 21
51.70781675902278
 72
     1
 10
123.0110050555558
 20
51.70781675902278
 11
136.3896976888243
 21
51.70781675902278
 97
        0
 92
        1
 93
        6
 72
     1
 10
136.3896976888243
 20
23.90312177406558
 11
143.0773214565795
 21
35.48933004386654
 72
     1
 10
143.0773214565795
 20
35.48933004386654
 11
136.3896976888243
 21
47.07416027456431
 72
     1
 10
136.3896976888243
 20
47.07416027456431
 11
123.0110050555558
 21
47.07416027456431
 72
     1
 10
123.0110050555558
 20
47.07416027456431
 11
116.3240703073522
 21
35.48933004386654
 72
     1
 10
116.3240703073522
 20
35.48933004386654
 11
123.0110050555558
 21
23.90312177406558
 72
     1
 10
123.0110050555558
 20
23.90312177406558
 11
136.3896976888243
 21
23.90312177406558
 97
        0
 92
        1
 93
        6
 72
     1
 10
136.3896976888243
 20
162.9276302281789
 11
143.0773214565795
 21
174.5141830077557
 72
     1
 10
143.0773214565795
 20
174.5141830077557
 11
136.3896976888243
 21
186.0984964737898
 72
     1
 10
136.3896976888243
 20
186.0984964737898
 11
123.0110050555558
 21
186.0984964737898
 72
     1
 10
123.0110050555558
 20
186.0984964737898
 11
116.3240703073522
 21
174.5141830077557
 72
     1
 10
116.3240703073522
 20
174.5141830077557
 11
123.0110050555558
 21
162.9276302281789
 72
     1
 10
123.0110050555558
 20
162.9276302281789
 11
136.3896976888243
 21
162.9276302281789
 97
        0
 92
        1
 93
        6
 72
     1
 10
161.0889815547548
 20
121.2200709860795
 11
167.77660532251
 21
132.8066237656562
 72
     1
 10
167.77660532251
 20
132.8066237656562
 11
161.0889815547548
 21
144.3909372316903
 72
     1
 10
161.0889815547548
 20
144.3909372316903
 11
147.710977941038
 21
144.3909372316903
 72
     1
 10
147.710977941038
 20
144.3909372316903
 11
141.0233541732827
 21
132.8066237656562
 72
     1
 10
141.0233541732827
 20
132.8066237656562
 11
147.710977941038
 21
121.2200709860795
 72
     1
 10
147.710977941038
 20
121.2200709860795
 11
161.0889815547548
 21
121.2200709860795
 97
        0
 92
        1
 93
        6
 72
     1
 10
161.0889815547548
 20
93.41520374623437
 11
167.77660532251
 21
105.0017565258111
 72
     1
 10
167.77660532251
 20
105.0017565258111
 11
161.0889815547548
 21
116.5860699918452
 72
     1
 10
161.0889815547548
 20
116.5860699918452
 11
147.710977941038
 21
116.5860699918452
 72
     1
 10
147.710977941038
 20
116.5860699918452
 11
141.0233541732827
 21
105.0017565258111
 72
     1
 10
141.0233541732827
 20
105.0017565258111
 11
147.710977941038
 21
93.41520374623437
 72
     1
 10
147.710977941038
 20
93.41520374623437
 11
161.0889815547548
 21
93.41520374623437
 97
        0
 92
        1
 93
        6
 72
     1
 10
161.0889815547548
 20
65.61050876127717
 11
167.77660532251
 21
77.19671703107812
 72
     1
 10
167.77660532251
 20
77.19671703107812
 11
161.0889815547548
 21
88.7815472617759
 72
     1
 10
161.0889815547548
 20
88.7815472617759
 11
147.710977941038
 21
88.7815472617759
 72
     1
 10
147.710977941038
 20
88.7815472617759
 11
141.0233541732827
 21
77.19671703107812
 72
     1
 10
141.0233541732827
 20
77.19671703107812
 11
147.710977941038
 21
65.61050876127717
 72
     1
 10
147.710977941038
 20
65.61050876127717
 11
161.0889815547548
 21
65.61050876127717
 97
        0
 92
        1
 93
        6
 72
     1
 10
161.0889815547548
 20
37.80546926654418
 11
167.77660532251
 21
49.39167753634514
 72
     1
 10
167.77660532251
 20
49.39167753634514
 11
161.0889815547548
 21
60.9765077670429
 72
     1
 10
161.0889815547548
 20
60.9765077670429
 11
147.710977941038
 21
60.9765077670429
 72
     1
 10
147.710977941038
 20
60.9765077670429
 11
141.0233541732827
 21
49.39167753634514
 72
     1
 10
141.0233541732827
 20
49.39167753634514
 11
147.710977941038
 21
37.80546926654418
 72
     1
 10
147.710977941038
 20
37.80546926654418
 11
161.0889815547548
 21
37.80546926654418
 97
        0
 92
        1
 93
        6
 72
     1
 10
161.0889815547548
 20
149.0252827357004
 11
167.77660532251
 21
160.6118355152771
 72
     1
 10
167.77660532251
 20
160.6118355152771
 11
161.0889815547548
 21
172.1959767264233
 72
     1
 10
161.0889815547548
 20
172.1959767264233
 11
147.710977941038
 21
172.1959767264233
 72
     1
 10
147.710977941038
 20
172.1959767264233
 11
141.0233541732827
 21
160.6118355152771
 72
     1
 10
141.0233541732827
 20
160.6118355152771
 11
147.710977941038
 21
149.0252827357004
 72
     1
 10
147.710977941038
 20
149.0252827357004
 11
161.0889815547548
 21
149.0252827357004
 97
        0
 92
        1
 93
        6
 72
     1
 10
185.7889544402369
 20
135.1225907334459
 11
192.4762336982164
 21
146.7091435130227
 72
     1
 10
192.4762336982164
 20
146.7091435130227
 11
185.7889544402369
 21
158.2932847241689
 72
     1
 10
185.7889544402369
 20
158.2932847241689
 11
172.4102618069685
 21
158.2932847241689
 72
     1
 10
172.4102618069685
 20
158.2932847241689
 11
165.7233270587649
 21
146.7091435130227
 72
     1
 10
165.7233270587649
 20
146.7091435130227
 11
172.4102618069685
 21
135.1225907334459
 72
     1
 10
172.4102618069685
 20
135.1225907334459
 11
185.7889544402369
 21
135.1225907334459
 97
        0
 92
        1
 93
        6
 72
     1
 10
185.7889544402369
 20
107.3177234936009
 11
192.4762336982164
 21
118.9042762731776
 72
     1
 10
192.4762336982164
 20
118.9042762731776
 11
185.7889544402369
 21
130.4885897392117
 72
     1
 10
185.7889544402369
 20
130.4885897392117
 11
172.4102618069685
 21
130.4885897392117
 72
     1
 10
172.4102618069685
 20
130.4885897392117
 11
165.7233270587649
 21
118.9042762731776
 72
     1
 10
165.7233270587649
 20
118.9042762731776
 11
172.4102618069685
 21
107.3177234936009
 72
     1
 10
172.4102618069685
 20
107.3177234936009
 11
185.7889544402369
 21
107.3177234936009
 97
        0
 92
        1
 93
        6
 72
     1
 10
185.7889544402369
 20
79.51285625375577
 11
192.4762336982164
 21
91.09906452355672
 72
     1
 10
192.4762336982164
 20
91.09906452355672
 11
185.7889544402369
 21
102.6838947542545
 72
     1
 10
185.7889544402369
 20
102.6838947542545
 11
172.4102618069685
 21
102.6838947542545
 72
     1
 10
172.4102618069685
 20
102.6838947542545
 11
165.7233270587649
 21
91.09906452355672
 72
     1
 10
165.7233270587649
 20
91.09906452355672
 11
172.4102618069685
 21
79.51285625375577
 72
     1
 10
172.4102618069685
 20
79.51285625375577
 11
185.7889544402369
 21
79.51285625375577
 97
        0
 92
        1
 93
        6
 72
     1
 10
185.7889544402369
 20
51.70781675902278
 11
192.4762336982164
 21
63.29402502882373
 72
     1
 10
192.4762336982164
 20
63.29402502882373
 11
185.7889544402369
 21
74.8791997692973
 72
     1
 10
185.7889544402369
 20
74.8791997692973
 11
172.4102618069685
 21
74.8791997692973
 72
     1
 10
172.4102618069685
 20
74.8791997692973
 11
165.7233270587649
 21
63.29402502882373
 72
     1
 10
165.7233270587649
 20
63.29402502882373
 11
172.4102618069685
 21
51.70781675902278
 72
     1
 10
172.4102618069685
 20
51.70781675902278
 11
185.7889544402369
 21
51.70781675902278
 97
        0
 75
     2
 76
     1
 98
        0
  0
INSERT
  5
18C
330
1F
100
AcDbEntity
  8
Ebene 2
100
AcDbBlockReference
  2
block 2
 10
0.0
 20
0.0
 30
0.0
  0
INSERT
  5
1D8
330
1F
100
AcDbEntity
  8
Ebene 2
100
AcDbBlockReference
  2
block 3
 10
0.0
 20
0.0
 30
0.0
  0
INSERT
  5
224
330
1F
100
AcDbEntity
  8
Ebene 2
100
AcDbBlockReference
  2
block 4
 10
0.0
 20
0.0
 30
0.0
  0
INSERT
  5
270
330
1F
100
AcDbEntity
  8
Ebene 2
100
AcDbBlockReference
  2
block 5
 10
0.0
 20
0.0
 30
0.0
  0
INSERT
  5
2BC
330
1F
100
AcDbEntity
  8
Ebene 2
100
AcDbBlockReference
  2
block 6
 10
0.0
 20
0.0
 30
0.0
  0
INSERT
  5
308
330
1F
100
AcDbEntity
  8
Ebene 2
100
AcDbBlockReference
  2
block 7
 10
0.0
 20
0.0
 30
0.0
  0
INSERT
  5
354
330
1F
100
AcDbEntity
  8
Ebene 2
100
AcDbBlockReference
  2
block 8
 10
0.0
 20
0.0
 30
0.0
  0
INSERT
  5
3A0
330
1F
100
AcDbEntity
  8
Ebene 2
100
AcDbBlockReference
  2
block 9
 10
0.0
 20
0.0
 30
0.0
  0
INSERT
  5
3EC
330
1F
100
AcDbEntity
  8
Ebene 2
100
AcDbBlockReference
  2
block 10
 10
0.0
 20
0.0
 30
0.0
  0
INSERT
  5
438
330
1F
100
AcDbEntity
  8
Ebene 2
100
AcDbBlockReference
  2
block 11
 10
0.0
 20
0.0
 30
0.0
  0
HATCH
  5
483
330
1F
100
AcDbEntity
  8
Ebene 2
 62
    18
420
        0
100
AcDbHatch
 10
0.0
 20
0.0
 30
0.0
210
0.0
220
0.0
230
1.0
  2
SOLID
 70
     1
 71
     0
 91
       80
 92
        1
 93
        6
 72
     1
 10
351.6869479553304
 20
167.5006529920973
 11
344.4718797208313
 21
180.0018792264129
 72
     1
 10
344.4718797208313
 20
180.0018792264129
 11
351.6869479553304
 21
192.5006938922979
 72
     1
 10
351.6869479553304
 20
192.5006938922979
 11
366.1215630514141
 21
192.5006938922979
 72
     1
 10
366.1215630514141
 20
192.5006938922979
 11
373.3369757956891
 21
180.0018792264129
 72
     1
 10
373.3369757956891
 20
180.0018792264129
 11
366.1215630514141
 21
167.5006529920973
 72
     1
 10
366.1215630514141
 20
167.5006529920973
 11
351.6869479553304
 21
167.5006529920973
 97
        0
 92
        1
 93
        6
 72
     1
 10
366.1215630514141
 20
137.5007417157669
 11
373.3369757956891
 21
150.0019679500825
 72
     1
 10
373.3369757956891
 20
150.0019679500825
 11
366.1215630514141
 21
162.5007826159675
 72
     1
 10
366.1215630514141
 20
162.5007826159675
 11
351.6869479553304
 21
162.5007826159675
 72
     1
 10
351.6869479553304
 20
162.5007826159675
 11
344.4718797208313
 21
150.0019679500825
 72
     1
 10
344.4718797208313
 20
150.0019679500825
 11
351.6869479553304
 21
137.5007417157669
 72
     1
 10
351.6869479553304
 20
137.5007417157669
 11
366.1215630514141
 21
137.5007417157669
 97
        0
 92
        1
 93
        6
 72
     1
 10
366.1215630514141
 20
107.5008304394365
 11
373.3369757956891
 21
120.0017121639763
 72
     1
 10
373.3369757956891
 20
120.0017121639763
 11
366.1215630514141
 21
132.5008713396371
 72
     1
 10
366.1215630514141
 20
132.5008713396371
 11
351.6869479553304
 21
132.5008713396371
 72
     1
 10
351.6869479553304
 20
132.5008713396371
 11
344.4718797208313
 21
120.0017121639763
 72
     1
 10
344.4718797208313
 20
120.0017121639763
 11
351.6869479553304
 21
107.5008304394365
 72
     1
 10
351.6869479553304
 20
107.5008304394365
 11
366.1215630514141
 21
107.5008304394365
 97
        0
 92
        1
 93
        6
 72
     1
 10
366.1215630514141
 20
77.50091916310615
 11
373.3369757956891
 21
90.00180088764593
 72
     1
 10
373.3369757956891
 20
90.00180088764593
 11
366.1215630514141
 21
102.5009600633067
 72
     1
 10
366.1215630514141
 20
102.5009600633067
 11
351.6869479553304
 21
102.5009600633067
 72
     1
 10
351.6869479553304
 20
102.5009600633067
 11
344.4718797208313
 21
90.00180088764593
 72
     1
 10
344.4718797208313
 20
90.00180088764593
 11
351.6869479553304
 21
77.50091916310615
 72
     1
 10
351.6869479553304
 20
77.50091916310615
 11
366.1215630514141
 21
77.50091916310615
 97
        0
 92
        1
 93
        6
 72
     1
 10
366.1215630514141
 20
47.50100788677576
 11
373.3369757956891
 21
60.00188961131554
 72
     1
 10
373.3369757956891
 20
60.00188961131554
 11
366.1215630514141
 21
72.50104878697634
 72
     1
 10
366.1215630514141
 20
72.50104878697634
 11
351.6869479553304
 21
72.50104878697634
 72
     1
 10
351.6869479553304
 20
72.50104878697634
 11
344.4718797208313
 21
60.00188961131554
 72
     1
 10
344.4718797208313
 20
60.00188961131554
 11
351.6869479553304
 21
47.50100788677576
 72
     1
 10
351.6869479553304
 20
47.50100788677576
 11
366.1215630514141
 21
47.50100788677576
 97
        0
 92
        1
 93
        6
 72
     1
 10
366.1215630514141
 20
17.50075210066958
 11
373.3369757956891
 21
30.00163382520936
 72
     1
 10
373.3369757956891
 20
30.00163382520936
 11
366.1215630514141
 21
42.50079300087017
 72
     1
 10
366.1215630514141
 20
42.50079300087017
 11
351.6869479553304
 21
42.50079300087017
 72
     1
 10
351.6869479553304
 20
42.50079300087017
 11
344.4718797208313
 21
30.00163382520936
 72
     1
 10
344.4718797208313
 20
30.00163382520936
 11
351.6869479553304
 21
17.50075210066958
 72
     1
 10
351.6869479553304
 20
17.50075210066958
 11
366.1215630514141
 21
17.50075210066958
 97
        0
 92
        1
 93
        6
 72
     1
 10
366.1215630514141
 20
197.5009087782035
 11
373.3369757956891
 21
210.0021350125191
 72
     1
 10
373.3369757956891
 20
210.0021350125191
 11
366.1215630514141
 21
222.5009496784041
 72
     1
 10
366.1215630514141
 20
222.5009496784041
 11
351.6869479553304
 21
222.5009496784041
 72
     1
 10
351.6869479553304
 20
222.5009496784041
 11
344.4718797208313
 21
210.0021350125191
 72
     1
 10
344.4718797208313
 20
210.0021350125191
 11
351.6869479553304
 21
197.5009087782035
 72
     1
 10
351.6869479553304
 20
197.5009087782035
 11
366.1215630514141
 21
197.5009087782035
 97
        0
 92
        1
 93
        6
 72
     1
 10
366.1215630514141
 20
227.5008200545338
 11
373.3369757956891
 21
240.0020462888494
 72
     1
 10
373.3369757956891
 20
240.0020462888494
 11
366.1215630514141
 21
252.5008609547344
 72
     1
 10
366.1215630514141
 20
252.5008609547344
 11
351.6869479553304
 21
252.5008609547344
 72
     1
 10
351.6869479553304
 20
252.5008609547344
 11
344.4718797208313
 21
240.0020462888494
 72
     1
 10
344.4718797208313
 20
240.0020462888494
 11
351.6869479553304
 21
227.5008200545338
 72
     1
 10
351.6869479553304
 20
227.5008200545338
 11
366.1215630514141
 21
227.5008200545338
 97
        0
 92
        1
 93
        6
 72
     1
 10
392.7711167581268
 20
182.5006086302625
 11
399.9865295024017
 21
195.0018348645781
 72
     1
 10
399.9865295024017
 20
195.0018348645781
 11
392.7711167581268
 21
207.5006495304631
 72
     1
 10
392.7711167581268
 20
207.5006495304631
 11
378.3365016620431
 21
207.5006495304631
 72
     1
 10
378.3365016620431
 20
207.5006495304631
 11
371.1214334275439
 21
195.0018348645781
 72
     1
 10
371.1214334275439
 20
195.0018348645781
 11
378.3365016620431
 21
182.5006086302625
 72
     1
 10
378.3365016620431
 20
182.5006086302625
 11
392.7711167581268
 21
182.5006086302625
 97
        0
 92
        1
 93
        6
 72
     1
 10
392.7711167581268
 20
152.5006973539321
 11
399.9865295024017
 21
165.0019235882477
 72
     1
 10
399.9865295024017
 20
165.0019235882477
 11
392.7711167581268
 21
177.5007382541327
 72
     1
 10
392.7711167581268
 20
177.5007382541327
 11
378.3365016620431
 21
177.5007382541327
 72
     1
 10
378.3365016620431
 20
177.5007382541327
 11
371.1214334275439
 21
165.0019235882477
 72
     1
 10
371.1214334275439
 20
165.0019235882477
 11
378.3365016620431
 21
152.5006973539321
 72
     1
 10
378.3365016620431
 20
152.5006973539321
 11
392.7711167581268
 21
152.5006973539321
 97
        0
 92
        1
 93
        6
 72
     1
 10
392.7711167581268
 20
122.5007860776017
 11
399.9865295024017
 21
135.0016678021415
 72
     1
 10
399.9865295024017
 20
135.0016678021415
 11
392.7711167581268
 21
147.5008269778023
 72
     1
 10
392.7711167581268
 20
147.5008269778023
 11
378.3365016620431
 21
147.5008269778023
 72
     1
 10
378.3365016620431
 20
147.5008269778023
 11
371.1214334275439
 21
135.0016678021415
 72
     1
 10
371.1214334275439
 20
135.0016678021415
 11
378.3365016620431
 21
122.5007860776017
 72
     1
 10
378.3365016620431
 20
122.5007860776017
 11
392.7711167581268
 21
122.5007860776017
 97
        0
 92
        1
 93
        6
 72
     1
 10
392.7711167581268
 20
92.50087480127134
 11
399.9865295024017
 21
105.0017565258111
 72
     1
 10
399.9865295024017
 20
105.0017565258111
 11
392.7711167581268
 21
117.5009157014719
 72
     1
 10
392.7711167581268
 20
117.5009157014719
 11
378.3365016620431
 21
117.5009157014719
 72
     1
 10
378.3365016620431
 20
117.5009157014719
 11
371.1214334275439
 21
105.0017565258111
 72
     1
 10
371.1214334275439
 20
105.0017565258111
 11
378.3365016620431
 21
92.50087480127134
 72
     1
 10
378.3365016620431
 20
92.50087480127134
 11
392.7711167581268
 21
92.50087480127134
 97
        0
 92
        1
 93
        6
 72
     1
 10
392.7711167581268
 20
62.50096352494095
 11
399.9865295024017
 21
75.00184524948074
 72
     1
 10
399.9865295024017
 20
75.00184524948074
 11
392.7711167581268
 21
87.50100442514153
 72
     1
 10
392.7711167581268
 20
87.50100442514153
 11
378.3365016620431
 21
87.50100442514153
 72
     1
 10
378.3365016620431
 20
87.50100442514153
 11
371.1214334275439
 21
75.00184524948074
 72
     1
 10
371.1214334275439
 20
75.00184524948074
 11
378.3365016620431
 21
62.50096352494095
 72
     1
 10
378.3365016620431
 20
62.50096352494095
 11
392.7711167581268
 21
62.50096352494095
 97
        0
 92
        1
 93
        6
 72
     1
 10
392.7711167581268
 20
32.50070773883477
 11
399.9865295024017
 21
45.00158946337456
 72
     1
 10
399.9865295024017
 20
45.00158946337456
 11
392.7711167581268
 21
57.50074863903536
 72
     1
 10
392.7711167581268
 20
57.50074863903536
 11
378.3365016620431
 21
57.50074863903536
 72
     1
 10
378.3365016620431
 20
57.50074863903536
 11
371.1214334275439
 21
45.00158946337456
 72
     1
 10
371.1214334275439
 20
45.00158946337456
 11
378.3365016620431
 21
32.50070773883477
 72
     1
 10
378.3365016620431
 20
32.50070773883477
 11
392.7711167581268
 21
32.50070773883477
 97
        0
 92
        1
 93
        6
 72
     1
 10
392.7711167581268
 20
212.5008644163687
 11
399.9865295024017
 21
225.0020906506842
 72
     1
 10
399.9865295024017
 20
225.0020906506842
 11
392.7711167581268
 21
237.5009053165693
 72
     1
 10
392.7711167581268
 20
237.5009053165693
 11
378.3365016620431
 21
237.5009053165693
 72
     1
 10
378.3365016620431
 20
237.5009053165693
 11
371.1214334275439
 21
225.0020906506842
 72
     1
 10
371.1214334275439
 20
225.0020906506842
 11
378.3365016620431
 21
212.5008644163687
 72
     1
 10
378.3365016620431
 20
212.5008644163687
 11
392.7711167581268
 21
212.5008644163687
 97
        0
 92
        1
 93
        6
 72
     1
 10
392.7711167581268
 20
242.5007756926991
 11
399.9865295024017
 21
255.0020019270146
 72
     1
 10
399.9865295024017
 20
255.0020019270146
 11
392.7711167581268
 21
267.5008165928996
 72
     1
 10
392.7711167581268
 20
267.5008165928996
 11
378.3365016620431
 21
267.5008165928996
 72
     1
 10
378.3365016620431
 20
267.5008165928996
 11
371.1214334275439
 21
255.0020019270146
 72
     1
 10
371.1214334275439
 20
255.0020019270146
 11
378.3365016620431
 21
242.5007756926991
 72
     1
 10
378.3365016620431
 20
242.5007756926991
 11
392.7711167581268
 21
242.5007756926991
 97
        0
 92
        1
 93
        6
 72
     1
 10
419.4206704648394
 20
167.5006529920973
 11
426.6357386993386
 21
180.0018792264129
 72
     1
 10
426.6357386993386
 20
180.0018792264129
 11
419.4206704648394
 21
192.5006938922979
 72
     1
 10
419.4206704648394
 20
192.5006938922979
 11
404.9860553687557
 21
192.5006938922979
 72
     1
 10
404.9860553687557
 20
192.5006938922979
 11
397.7709871342565
 21
180.0018792264129
 72
     1
 10
397.7709871342565
 20
180.0018792264129
 11
404.9860553687557
 21
167.5006529920973
 72
     1
 10
404.9860553687557
 20
167.5006529920973
 11
419.4206704648394
 21
167.5006529920973
 97
        0
 92
        1
 93
        6
 72
     1
 10
419.4206704648394
 20
137.5007417157669
 11
426.6357386993386
 21
150.0019679500825
 72
     1
 10
426.6357386993386
 20
150.0019679500825
 11
419.4206704648394
 21
162.5007826159675
 72
     1
 10
419.4206704648394
 20
162.5007826159675
 11
404.9860553687557
 21
162.5007826159675
 72
     1
 10
404.9860553687557
 20
162.5007826159675
 11
397.7709871342565
 21
150.0019679500825
 72
     1
 10
397.7709871342565
 20
150.0019679500825
 11
404.9860553687557
 21
137.5007417157669
 72
     1
 10
404.9860553687557
 20
137.5007417157669
 11
419.4206704648394
 21
137.5007417157669
 97
        0
 92
        1
 93
        6
 72
     1
 10
419.4206704648394
 20
107.5008304394365
 11
426.6357386993386
 21
120.0017121639763
 72
     1
 10
426.6357386993386
 20
120.0017121639763
 11
419.4206704648394
 21
132.5008713396371
 72
     1
 10
419.4206704648394
 20
132.5008713396371
 11
404.9860553687557
 21
132.5008713396371
 72
     1
 10
404.9860553687557
 20
132.5008713396371
 11
397.7709871342565
 21
120.0017121639763
 72
     1
 10
397.7709871342565
 20
120.0017121639763
 11
404.9860553687557
 21
107.5008304394365
 72
     1
 10
404.9860553687557
 20
107.5008304394365
 11
419.4206704648394
 21
107.5008304394365
 97
        0
 92
        1
 93
        6
 72
     1
 10
419.4206704648394
 20
77.50091916310615
 11
426.6357386993386
 21
90.00180088764593
 72
     1
 10
426.6357386993386
 20
90.00180088764593
 11
419.4206704648394
 21
102.5009600633067
 72
     1
 10
419.4206704648394
 20
102.5009600633067
 11
404.9860553687557
 21
102.5009600633067
 72
     1
 10
404.9860553687557
 20
102.5009600633067
 11
397.7709871342565
 21
90.00180088764593
 72
     1
 10
397.7709871342565
 20
90.00180088764593
 11
404.9860553687557
 21
77.50091916310615
 72
     1
 10
404.9860553687557
 20
77.50091916310615
 11
419.4206704648394
 21
77.50091916310615
 97
        0
 92
        1
 93
        6
 72
     1
 10
419.4206704648394
 20
47.50100788677576
 11
426.6357386993386
 21
60.00188961131554
 72
     1
 10
426.6357386993386
 20
60.00188961131554
 11
419.4206704648394
 21
72.50104878697634
 72
     1
 10
419.4206704648394
 20
72.50104878697634
 11
404.9860553687557
 21
72.50104878697634
 72
     1
 10
404.9860553687557
 20
72.50104878697634
 11
397.7709871342565
 21
60.00188961131554
 72
     1
 10
397.7709871342565
 20
60.00188961131554
 11
404.9860553687557
 21
47.50100788677576
 72
     1
 10
404.9860553687557
 20
47.50100788677576
 11
419.4206704648394
 21
47.50100788677576
 97
        0
 92
        1
 93
        6
 72
     1
 10
419.4206704648394
 20
17.50075210066958
 11
426.6357386993386
 21
30.00163382520936
 72
     1
 10
426.6357386993386
 20
30.00163382520936
 11
419.4206704648394
 21
42.50079300087017
 72
     1
 10
419.4206704648394
 20
42.50079300087017
 11
404.9860553687557
 21
42.50079300087017
 72
     1
 10
404.9860553687557
 20
42.50079300087017
 11
397.7709871342565
 21
30.00163382520936
 72
     1
 10
397.7709871342565
 20
30.00163382520936
 11
404.9860553687557
 21
17.50075210066958
 72
     1
 10
404.9860553687557
 20
17.50075210066958
 11
419.4206704648394
 21
17.50075210066958
 97
        0
 92
        1
 93
        6
 72
     1
 10
419.4206704648394
 20
197.5009087782035
 11
426.6357386993386
 21
210.0021350125191
 72
     1
 10
426.6357386993386
 20
210.0021350125191
 11
419.4206704648394
 21
222.5009496784041
 72
     1
 10
419.4206704648394
 20
222.5009496784041
 11
404.9860553687557
 21
222.5009496784041
 72
     1
 10
404.9860553687557
 20
222.5009496784041
 11
397.7709871342565
 21
210.0021350125191
 72
     1
 10
397.7709871342565
 20
210.0021350125191
 11
404.9860553687557
 21
197.5009087782035
 72
     1
 10
404.9860553687557
 20
197.5009087782035
 11
419.4206704648394
 21
197.5009087782035
 97
        0
 92
        1
 93
        6
 72
     1
 10
419.4206704648394
 20
227.5008200545338
 11
426.6357386993386
 21
240.0020462888494
 72
     1
 10
426.6357386993386
 20
240.0020462888494
 11
419.4206704648394
 21
252.5008609547344
 72
     1
 10
419.4206704648394
 20
252.5008609547344
 11
404.9860553687557
 21
252.5008609547344
 72
     1
 10
404.9860553687557
 20
252.5008609547344
 11
397.7709871342565
 21
240.0020462888494
 72
     1
 10
397.7709871342565
 20
240.0020462888494
 11
404.9860553687557
 21
227.5008200545338
 72
     1
 10
404.9860553687557
 20
227.5008200545338
 11
419.4206704648394
 21
227.5008200545338
 97
        0
 92
        1
 93
        6
 72
     1
 10
446.070224171552
 20
182.5006086302625
 11
453.285636915827
 21
195.0018348645781
 72
     1
 10
453.285636915827
 20
195.0018348645781
 11
446.070224171552
 21
207.5006495304631
 72
     1
 10
446.070224171552
 20
207.5006495304631
 11
431.6356090754684
 21
207.5006495304631
 72
     1
 10
431.6356090754684
 20
207.5006495304631
 11
424.4205408409692
 21
195.0018348645781
 72
     1
 10
424.4205408409692
 20
195.0018348645781
 11
431.6356090754684
 21
182.5006086302625
 72
     1
 10
431.6356090754684
 20
182.5006086302625
 11
446.070224171552
 21
182.5006086302625
 97
        0
 92
        1
 93
        6
 72
     1
 10
446.070224171552
 20
152.5006973539321
 11
453.285636915827
 21
165.0019235882477
 72
     1
 10
453.285636915827
 20
165.0019235882477
 11
446.070224171552
 21
177.5007382541327
 72
     1
 10
446.070224171552
 20
177.5007382541327
 11
431.6356090754684
 21
177.5007382541327
 72
     1
 10
431.6356090754684
 20
177.5007382541327
 11
424.4205408409692
 21
165.0019235882477
 72
     1
 10
424.4205408409692
 20
165.0019235882477
 11
431.6356090754684
 21
152.5006973539321
 72
     1
 10
431.6356090754684
 20
152.5006973539321
 11
446.070224171552
 21
152.5006973539321
 97
        0
 92
        1
 93
        6
 72
     1
 10
446.070224171552
 20
122.5007860776017
 11
453.285636915827
 21
135.0016678021415
 72
     1
 10
453.285636915827
 20
135.0016678021415
 11
446.070224171552
 21
147.5008269778023
 72
     1
 10
446.070224171552
 20
147.5008269778023
 11
431.6356090754684
 21
147.5008269778023
 72
     1
 10
431.6356090754684
 20
147.5008269778023
 11
424.4205408409692
 21
135.0016678021415
 72
     1
 10
424.4205408409692
 20
135.0016678021415
 11
431.6356090754684
 21
122.5007860776017
 72
     1
 10
431.6356090754684
 20
122.5007860776017
 11
446.070224171552
 21
122.5007860776017
 97
        0
 92
        1
 93
        6
 72
     1
 10
446.070224171552
 20
92.50087480127134
 11
453.285636915827
 21
105.0017565258111
 72
     1
 10
453.285636915827
 20
105.0017565258111
 11
446.070224171552
 21
117.5009157014719
 72
     1
 10
446.070224171552
 20
117.5009157014719
 11
431.6356090754684
 21
117.5009157014719
 72
     1
 10
431.6356090754684
 20
117.5009157014719
 11
424.4205408409692
 21
105.0017565258111
 72
     1
 10
424.4205408409692
 20
105.0017565258111
 11
431.6356090754684
 21
92.50087480127134
 72
     1
 10
431.6356090754684
 20
92.50087480127134
 11
446.070224171552
 21
92.50087480127134
 97
        0
 92
        1
 93
        6
 72
     1
 10
446.070224171552
 20
62.50096352494095
 11
453.285636915827
 21
75.00184524948074
 72
     1
 10
453.285636915827
 20
75.00184524948074
 11
446.070224171552
 21
87.50100442514153
 72
     1
 10
446.070224171552
 20
87.50100442514153
 11
431.6356090754684
 21
87.50100442514153
 72
     1
 10
431.6356090754684
 20
87.50100442514153
 11
424.4205408409692
 21
75.00184524948074
 72
     1
 10
424.4205408409692
 20
75.00184524948074
 11
431.6356090754684
 21
62.50096352494095
 72
     1
 10
431.6356090754684
 20
62.50096352494095
 11
446.070224171552
 21
62.50096352494095
 97
        0
 92
        1
 93
        6
 72
     1
 10
446.070224171552
 20
32.50070773883477
 11
453.285636915827
 21
45.00158946337456
 72
     1
 10
453.285636915827
 20
45.00158946337456
 11
446.070224171552
 21
57.50074863903536
 72
     1
 10
446.070224171552
 20
57.50074863903536
 11
431.6356090754684
 21
57.50074863903536
 72
     1
 10
431.6356090754684
 20
57.50074863903536
 11
424.4205408409692
 21
45.00158946337456
 72
     1
 10
424.4205408409692
 20
45.00158946337456
 11
431.6356090754684
 21
32.50070773883477
 72
     1
 10
431.6356090754684
 20
32.50070773883477
 11
446.070224171552
 21
32.50070773883477
 97
        0
 92
        1
 93
        6
 72
     1
 10
446.070224171552
 20
212.5008644163687
 11
453.285636915827
 21
225.0020906506842
 72
     1
 10
453.285636915827
 20
225.0020906506842
 11
446.070224171552
 21
237.5009053165693
 72
     1
 10
446.070224171552
 20
237.5009053165693
 11
431.6356090754684
 21
237.5009053165693
 72
     1
 10
431.6356090754684
 20
237.5009053165693
 11
424.4205408409692
 21
225.0020906506842
 72
     1
 10
424.4205408409692
 20
225.0020906506842
 11
431.6356090754684
 21
212.5008644163687
 72
     1
 10
431.6356090754684
 20
212.5008644163687
 11
446.070224171552
 21
212.5008644163687
 97
        0
 92
        1
 93
        6
 72
     1
 10
446.070224171552
 20
242.5007756926991
 11
453.285636915827
 21
255.0020019270146
 72
     1
 10
453.285636915827
 20
255.0020019270146
 11
446.070224171552
 21
267.5008165928996
 72
     1
 10
446.070224171552
 20
267.5008165928996
 11
431.6356090754684
 21
267.5008165928996
 72
     1
 10
431.6356090754684
 20
267.5008165928996
 11
424.4205408409692
 21
255.0020019270146
 72
     1
 10
424.4205408409692
 20
255.0020019270146
 11
431.6356090754684
 21
242.5007756926991
 72
     1
 10
431.6356090754684
 20
242.5007756926991
 11
446.070224171552
 21
242.5007756926991
 97
        0
 92
        1
 93
        6
 72
     1
 10
472.7197778782647
 20
167.5006529920973
 11
479.9348461127639
 21
180.0018792264129
 72
     1
 10
479.9348461127639
 20
180.0018792264129
 11
472.7197778782647
 21
192.5006938922979
 72
     1
 10
472.7197778782647
 20
192.5006938922979
 11
458.285162782181
 21
192.5006938922979
 72
     1
 10
458.285162782181
 20
192.5006938922979
 11
451.0700945476818
 21
180.0018792264129
 72
     1
 10
451.0700945476818
 20
180.0018792264129
 11
458.285162782181
 21
167.5006529920973
 72
     1
 10
458.285162782181
 20
167.5006529920973
 11
472.7197778782647
 21
167.5006529920973
 97
        0
 92
        1
 93
        6
 72
     1
 10
472.7197778782647
 20
137.5007417157669
 11
479.9348461127639
 21
150.0019679500825
 72
     1
 10
479.9348461127639
 20
150.0019679500825
 11
472.7197778782647
 21
162.5007826159675
 72
     1
 10
472.7197778782647
 20
162.5007826159675
 11
458.285162782181
 21
162.5007826159675
 72
     1
 10
458.285162782181
 20
162.5007826159675
 11
451.0700945476818
 21
150.0019679500825
 72
     1
 10
451.0700945476818
 20
150.0019679500825
 11
458.285162782181
 21
137.5007417157669
 72
     1
 10
458.285162782181
 20
137.5007417157669
 11
472.7197778782647
 21
137.5007417157669
 97
        0
 92
        1
 93
        6
 72
     1
 10
472.7197778782647
 20
107.5008304394365
 11
479.9348461127639
 21
120.0017121639763
 72
     1
 10
479.9348461127639
 20
120.0017121639763
 11
472.7197778782647
 21
132.5008713396371
 72
     1
 10
472.7197778782647
 20
132.5008713396371
 11
458.285162782181
 21
132.5008713396371
 72
     1
 10
458.285162782181
 20
132.5008713396371
 11
451.0700945476818
 21
120.0017121639763
 72
     1
 10
451.0700945476818
 20
120.0017121639763
 11
458.285162782181
 21
107.5008304394365
 72
     1
 10
458.285162782181
 20
107.5008304394365
 11
472.7197778782647
 21
107.5008304394365
 97
        0
 92
        1
 93
        6
 72
     1
 10
472.7197778782647
 20
77.50091916310615
 11
479.9348461127639
 21
90.00180088764593
 72
     1
 10
479.9348461127639
 20
90.00180088764593
 11
472.7197778782647
 21
102.5009600633067
 72
     1
 10
472.7197778782647
 20
102.5009600633067
 11
458.285162782181
 21
102.5009600633067
 72
     1
 10
458.285162782181
 20
102.5009600633067
 11
451.0700945476818
 21
90.00180088764593
 72
     1
 10
451.0700945476818
 20
90.00180088764593
 11
458.285162782181
 21
77.50091916310615
 72
     1
 10
458.285162782181
 20
77.50091916310615
 11
472.7197778782647
 21
77.50091916310615
 97
        0
 92
        1
 93
        6
 72
     1
 10
472.7197778782647
 20
47.50100788677576
 11
479.9348461127639
 21
60.00188961131554
 72
     1
 10
479.9348461127639
 20
60.00188961131554
 11
472.7197778782647
 21
72.50104878697634
 72
     1
 10
472.7197778782647
 20
72.50104878697634
 11
458.285162782181
 21
72.50104878697634
 72
     1
 10
458.285162782181
 20
72.50104878697634
 11
451.0700945476818
 21
60.00188961131554
 72
     1
 10
451.0700945476818
 20
60.00188961131554
 11
458.285162782181
 21
47.50100788677576
 72
     1
 10
458.285162782181
 20
47.50100788677576
 11
472.7197778782647
 21
47.50100788677576
 97
        0
 92
        1
 93
        6
 72
     1
 10
472.7197778782647
 20
17.50075210066958
 11
479.9348461127639
 21
30.00163382520936
 72
     1
 10
479.9348461127639
 20
30.00163382520936
 11
472.7197778782647
 21
42.50079300087017
 72
     1
 10
472.7197778782647
 20
42.50079300087017
 11
458.285162782181
 21
42.50079300087017
 72
     1
 10
458.285162782181
 20
42.50079300087017
 11
451.0700945476818
 21
30.00163382520936
 72
     1
 10
451.0700945476818
 20
30.00163382520936
 11
458.285162782181
 21
17.50075210066958
 72
     1
 10
458.285162782181
 20
17.50075210066958
 11
472.7197778782647
 21
17.50075210066958
 97
        0
 92
        1
 93
        6
 72
     1
 10
472.7197778782647
 20
197.5009087782035
 11
479.9348461127639
 21
210.0021350125191
 72
     1
 10
479.9348461127639
 20
210.0021350125191
 11
472.7197778782647
 21
222.5009496784041
 72
     1
 10
472.7197778782647
 20
222.5009496784041
 11
458.285162782181
 21
222.5009496784041
 72
     1
 10
458.285162782181
 20
222.5009496784041
 11
451.0700945476818
 21
210.0021350125191
 72
     1
 10
451.0700945476818
 20
210.0021350125191
 11
458.285162782181
 21
197.5009087782035
 72
     1
 10
458.285162782181
 20
197.5009087782035
 11
472.7197778782647
 21
197.5009087782035
 97
        0
 92
        1
 93
        6
 72
     1
 10
472.7197778782647
 20
227.5008200545338
 11
479.9348461127639
 21
240.0020462888494
 72
     1
 10
479.9348461127639
 20
240.0020462888494
 11
472.7197778782647
 21
252.5008609547344
 72
     1
 10
472.7197778782647
 20
252.5008609547344
 11
458.285162782181
 21
252.5008609547344
 72
     1
 10
458.285162782181
 20
252.5008609547344
 11
451.0700945476818
 21
240.0020462888494
 72
     1
 10
451.0700945476818
 20
240.0020462888494
 11
458.285162782181
 21
227.5008200545338
 72
     1
 10
458.285162782181
 20
227.5008200545338
 11
472.7197778782647
 21
227.5008200545338
 97
        0
 92
        1
 93
        6
 72
     1
 10
499.3693315849773
 20
182.5006086302625
 11
506.5847443292523
 21
195.0018348645781
 72
     1
 10
506.5847443292523
 20
195.0018348645781
 11
499.3693315849773
 21
207.5006495304631
 72
     1
 10
499.3693315849773
 20
207.5006495304631
 11
484.9347164888936
 21
207.5006495304631
 72
     1
 10
484.9347164888936
 20
207.5006495304631
 11
477.7196482543945
 21
195.0018348645781
 72
     1
 10
477.7196482543945
 20
195.0018348645781
 11
484.9347164888936
 21
182.5006086302625
 72
     1
 10
484.9347164888936
 20
182.5006086302625
 11
499.3693315849773
 21
182.5006086302625
 97
        0
 92
        1
 93
        6
 72
     1
 10
499.3693315849773
 20
152.5006973539321
 11
506.5847443292523
 21
165.0019235882477
 72
     1
 10
506.5847443292523
 20
165.0019235882477
 11
499.3693315849773
 21
177.5007382541327
 72
     1
 10
499.3693315849773
 20
177.5007382541327
 11
484.9347164888936
 21
177.5007382541327
 72
     1
 10
484.9347164888936
 20
177.5007382541327
 11
477.7196482543945
 21
165.0019235882477
 72
     1
 10
477.7196482543945
 20
165.0019235882477
 11
484.9347164888936
 21
152.5006973539321
 72
     1
 10
484.9347164888936
 20
152.5006973539321
 11
499.3693315849773
 21
152.5006973539321
 97
        0
 92
        1
 93
        6
 72
     1
 10
499.3693315849773
 20
122.5007860776017
 11
506.5847443292523
 21
135.0016678021415
 72
     1
 10
506.5847443292523
 20
135.0016678021415
 11
499.3693315849773
 21
147.5008269778023
 72
     1
 10
499.3693315849773
 20
147.5008269778023
 11
484.9347164888936
 21
147.5008269778023
 72
     1
 10
484.9347164888936
 20
147.5008269778023
 11
477.7196482543945
 21
135.0016678021415
 72
     1
 10
477.7196482543945
 20
135.0016678021415
 11
484.9347164888936
 21
122.5007860776017
 72
     1
 10
484.9347164888936
 20
122.5007860776017
 11
499.3693315849773
 21
122.5007860776017
 97
        0
 92
        1
 93
        6
 72
     1
 10
499.3693315849773
 20
92.50087480127134
 11
506.5847443292523
 21
105.0017565258111
 72
     1
 10
506.5847443292523
 20
105.0017565258111
 11
499.3693315849773
 21
117.5009157014719
 72
     1
 10
499.3693315849773
 20
117.5009157014719
 11
484.9347164888936
 21
117.5009157014719
 72
     1
 10
484.9347164888936
 20
117.5009157014719
 11
477.7196482543945
 21
105.0017565258111
 72
     1
 10
477.7196482543945
 20
105.0017565258111
 11
484.9347164888936
 21
92.50087480127134
 72
     1
 10
484.9347164888936
 20
92.50087480127134
 11
499.3693315849773
 21
92.50087480127134
 97
        0
 92
        1
 93
        6
 72
     1
 10
499.3693315849773
 20
62.50096352494095
 11
506.5847443292523
 21
75.00184524948074
 72
     1
 10
506.5847443292523
 20
75.00184524948074
 11
499.3693315849773
 21
87.50100442514153
 72
     1
 10
499.3693315849773
 20
87.50100442514153
 11
484.9347164888936
 21
87.50100442514153
 72
     1
 10
484.9347164888936
 20
87.50100442514153
 11
477.7196482543945
 21
75.00184524948074
 72
     1
 10
477.7196482543945
 20
75.00184524948074
 11
484.9347164888936
 21
62.50096352494095
 72
     1
 10
484.9347164888936
 20
62.50096352494095
 11
499.3693315849773
 21
62.50096352494095
 97
        0
 92
        1
 93
        6
 72
     1
 10
499.3693315849773
 20
32.50070773883477
 11
506.5847443292523
 21
45.00158946337456
 72
     1
 10
506.5847443292523
 20
45.00158946337456
 11
499.3693315849773
 21
57.50074863903536
 72
     1
 10
499.3693315849773
 20
57.50074863903536
 11
484.9347164888936
 21
57.50074863903536
 72
     1
 10
484.9347164888936
 20
57.50074863903536
 11
477.7196482543945
 21
45.00158946337456
 72
     1
 10
477.7196482543945
 20
45.00158946337456
 11
484.9347164888936
 21
32.50070773883477
 72
     1
 10
484.9347164888936
 20
32.50070773883477
 11
499.3693315849773
 21
32.50070773883477
 97
        0
 92
        1
 93
        6
 72
     1
 10
499.3693315849773
 20
212.5008644163687
 11
506.5847443292523
 21
225.0020906506842
 72
     1
 10
506.5847443292523
 20
225.0020906506842
 11
499.3693315849773
 21
237.5009053165693
 72
     1
 10
499.3693315849773
 20
237.5009053165693
 11
484.9347164888936
 21
237.5009053165693
 72
     1
 10
484.9347164888936
 20
237.5009053165693
 11
477.7196482543945
 21
225.0020906506842
 72
     1
 10
477.7196482543945
 20
225.0020906506842
 11
484.9347164888936
 21
212.5008644163687
 72
     1
 10
484.9347164888936
 20
212.5008644163687
 11
499.3693315849773
 21
212.5008644163687
 97
        0
 92
        1
 93
        6
 72
     1
 10
499.3693315849773
 20
242.5007756926991
 11
506.5847443292523
 21
255.0020019270146
 72
     1
 10
506.5847443292523
 20
255.0020019270146
 11
499.3693315849773
 21
267.5008165928996
 72
     1
 10
499.3693315849773
 20
267.5008165928996
 11
484.9347164888936
 21
267.5008165928996
 72
     1
 10
484.9347164888936
 20
267.5008165928996
 11
477.7196482543945
 21
255.0020019270146
 72
     1
 10
477.7196482543945
 20
255.0020019270146
 11
484.9347164888936
 21
242.5007756926991
 72
     1
 10
484.9347164888936
 20
242.5007756926991
 11
499.3693315849773
 21
242.5007756926991
 97
        0
 92
        1
 93
        6
 72
     1
 10
526.0188852916899
 20
167.5006529920973
 11
533.2339535261891
 21
180.0018792264129
 72
     1
 10
533.2339535261891
 20
180.0018792264129
 11
526.0188852916899
 21
192.5006938922979
 72
     1
 10
526.0188852916899
 20
192.5006938922979
 11
511.5842701956063
 21
192.5006938922979
 72
     1
 10
511.5842701956063
 20
192.5006938922979
 11
504.3692019611071
 21
180.0018792264129
 72
     1
 10
504.3692019611071
 20
180.0018792264129
 11
511.5842701956063
 21
167.5006529920973
 72
     1
 10
511.5842701956063
 20
167.5006529920973
 11
526.0188852916899
 21
167.5006529920973
 97
        0
 92
        1
 93
        6
 72
     1
 10
526.0188852916899
 20
137.5007417157669
 11
533.2339535261891
 21
150.0019679500825
 72
     1
 10
533.2339535261891
 20
150.0019679500825
 11
526.0188852916899
 21
162.5007826159675
 72
     1
 10
526.0188852916899
 20
162.5007826159675
 11
511.5842701956063
 21
162.5007826159675
 72
     1
 10
511.5842701956063
 20
162.5007826159675
 11
504.3692019611071
 21
150.0019679500825
 72
     1
 10
504.3692019611071
 20
150.0019679500825
 11
511.5842701956063
 21
137.5007417157669
 72
     1
 10
511.5842701956063
 20
137.5007417157669
 11
526.0188852916899
 21
137.5007417157669
 97
        0
 92
        1
 93
        6
 72
     1
 10
526.0188852916899
 20
107.5008304394365
 11
533.2339535261891
 21
120.0017121639763
 72
     1
 10
533.2339535261891
 20
120.0017121639763
 11
526.0188852916899
 21
132.5008713396371
 72
     1
 10
526.0188852916899
 20
132.5008713396371
 11
511.5842701956063
 21
132.5008713396371
 72
     1
 10
511.5842701956063
 20
132.5008713396371
 11
504.3692019611071
 21
120.0017121639763
 72
     1
 10
504.3692019611071
 20
120.0017121639763
 11
511.5842701956063
 21
107.5008304394365
 72
     1
 10
511.5842701956063
 20
107.5008304394365
 11
526.0188852916899
 21
107.5008304394365
 97
        0
 92
        1
 93
        6
 72
     1
 10
526.0188852916899
 20
77.50091916310615
 11
533.2339535261891
 21
90.00180088764593
 72
     1
 10
533.2339535261891
 20
90.00180088764593
 11
526.0188852916899
 21
102.5009600633067
 72
     1
 10
526.0188852916899
 20
102.5009600633067
 11
511.5842701956063
 21
102.5009600633067
 72
     1
 10
511.5842701956063
 20
102.5009600633067
 11
504.3692019611071
 21
90.00180088764593
 72
     1
 10
504.3692019611071
 20
90.00180088764593
 11
511.5842701956063
 21
77.50091916310615
 72
     1
 10
511.5842701956063
 20
77.50091916310615
 11
526.0188852916899
 21
77.50091916310615
 97
        0
 92
        1
 93
        6
 72
     1
 10
526.0188852916899
 20
47.50100788677576
 11
533.2339535261891
 21
60.00188961131554
 72
     1
 10
533.2339535261891
 20
60.00188961131554
 11
526.0188852916899
 21
72.50104878697634
 72
     1
 10
526.0188852916899
 20
72.50104878697634
 11
511.5842701956063
 21
72.50104878697634
 72
     1
 10
511.5842701956063
 20
72.50104878697634
 11
504.3692019611071
 21
60.00188961131554
 72
     1
 10
504.3692019611071
 20
60.00188961131554
 11
511.5842701956063
 21
47.50100788677576
 72
     1
 10
511.5842701956063
 20
47.50100788677576
 11
526.0188852916899
 21
47.50100788677576
 97
        0
 92
        1
 93
        6
 72
     1
 10
526.0188852916899
 20
17.50075210066958
 11
533.2339535261891
 21
30.00163382520936
 72
     1
 10
533.2339535261891
 20
30.00163382520936
 11
526.0188852916899
 21
42.50079300087017
 72
     1
 10
526.0188852916899
 20
42.50079300087017
 11
511.5842701956063
 21
42.50079300087017
 72
     1
 10
511.5842701956063
 20
42.50079300087017
 11
504.3692019611071
 21
30.00163382520936
 72
     1
 10
504.3692019611071
 20
30.00163382520936
 11
511.5842701956063
 21
17.50075210066958
 72
     1
 10
511.5842701956063
 20
17.50075210066958
 11
526.0188852916899
 21
17.50075210066958
 97
        0
 92
        1
 93
        6
 72
     1
 10
526.0188852916899
 20
197.5009087782035
 11
533.2339535261891
 21
210.0021350125191
 72
     1
 10
533.2339535261891
 20
210.0021350125191
 11
526.0188852916899
 21
222.5009496784041
 72
     1
 10
526.0188852916899
 20
222.5009496784041
 11
511.5842701956063
 21
222.5009496784041
 72
     1
 10
511.5842701956063
 20
222.5009496784041
 11
504.3692019611071
 21
210.0021350125191
 72
     1
 10
504.3692019611071
 20
210.0021350125191
 11
511.5842701956063
 21
197.5009087782035
 72
     1
 10
511.5842701956063
 20
197.5009087782035
 11
526.0188852916899
 21
197.5009087782035
 97
        0
 92
        1
 93
        6
 72
     1
 10
526.0188852916899
 20
227.5008200545338
 11
533.2339535261891
 21
240.0020462888494
 72
     1
 10
533.2339535261891
 20
240.0020462888494
 11
526.0188852916899
 21
252.5008609547344
 72
     1
 10
526.0188852916899
 20
252.5008609547344
 11
511.5842701956063
 21
252.5008609547344
 72
     1
 10
511.5842701956063
 20
252.5008609547344
 11
504.3692019611071
 21
240.0020462888494
 72
     1
 10
504.3692019611071
 20
240.0020462888494
 11
511.5842701956063
 21
227.5008200545338
 72
     1
 10
511.5842701956063
 20
227.5008200545338
 11
526.0188852916899
 21
227.5008200545338
 97
        0
 92
        1
 93
        6
 72
     1
 10
552.6684389984026
 20
182.5006086302625
 11
559.8838517426775
 21
195.0018348645781
 72
     1
 10
559.8838517426775
 20
195.0018348645781
 11
552.6684389984026
 21
207.5006495304631
 72
     1
 10
552.6684389984026
 20
207.5006495304631
 11
538.2338239023189
 21
207.5006495304631
 72
     1
 10
538.2338239023189
 20
207.5006495304631
 11
531.0187556678197
 21
195.0018348645781
 72
     1
 10
531.0187556678197
 20
195.0018348645781
 11
538.2338239023189
 21
182.5006086302625
 72
     1
 10
538.2338239023189
 20
182.5006086302625
 11
552.6684389984026
 21
182.5006086302625
 97
        0
 92
        1
 93
        6
 72
     1
 10
552.6684389984026
 20
152.5006973539321
 11
559.8838517426775
 21
165.0019235882477
 72
     1
 10
559.8838517426775
 20
165.0019235882477
 11
552.6684389984026
 21
177.5007382541327
 72
     1
 10
552.6684389984026
 20
177.5007382541327
 11
538.2338239023189
 21
177.5007382541327
 72
     1
 10
538.2338239023189
 20
177.5007382541327
 11
531.0187556678197
 21
165.0019235882477
 72
     1
 10
531.0187556678197
 20
165.0019235882477
 11
538.2338239023189
 21
152.5006973539321
 72
     1
 10
538.2338239023189
 20
152.5006973539321
 11
552.6684389984026
 21
152.5006973539321
 97
        0
 92
        1
 93
        6
 72
     1
 10
552.6684389984026
 20
122.5007860776017
 11
559.8838517426775
 21
135.0016678021415
 72
     1
 10
559.8838517426775
 20
135.0016678021415
 11
552.6684389984026
 21
147.5008269778023
 72
     1
 10
552.6684389984026
 20
147.5008269778023
 11
538.2338239023189
 21
147.5008269778023
 72
     1
 10
538.2338239023189
 20
147.5008269778023
 11
531.0187556678197
 21
135.0016678021415
 72
     1
 10
531.0187556678197
 20
135.0016678021415
 11
538.2338239023189
 21
122.5007860776017
 72
     1
 10
538.2338239023189
 20
122.5007860776017
 11
552.6684389984026
 21
122.5007860776017
 97
        0
 92
        1
 93
        6
 72
     1
 10
552.6684389984026
 20
92.50087480127134
 11
559.8838517426775
 21
105.0017565258111
 72
     1
 10
559.8838517426775
 20
105.0017565258111
 11
552.6684389984026
 21
117.5009157014719
 72
     1
 10
552.6684389984026
 20
117.5009157014719
 11
538.2338239023189
 21
117.5009157014719
 72
     1
 10
538.2338239023189
 20
117.5009157014719
 11
531.0187556678197
 21
105.0017565258111
 72
     1
 10
531.0187556678197
 20
105.0017565258111
 11
538.2338239023189
 21
92.50087480127134
 72
     1
 10
538.2338239023189
 20
92.50087480127134
 11
552.6684389984026
 21
92.50087480127134
 97
        0
 92
        1
 93
        6
 72
     1
 10
552.6684389984026
 20
62.50096352494095
 11
559.8838517426775
 21
75.00184524948074
 72
     1
 10
559.8838517426775
 20
75.00184524948074
 11
552.6684389984026
 21
87.50100442514153
 72
     1
 10
552.6684389984026
 20
87.50100442514153
 11
538.2338239023189
 21
87.50100442514153
 72
     1
 10
538.2338239023189
 20
87.50100442514153
 11
531.0187556678197
 21
75.00184524948074
 72
     1
 10
531.0187556678197
 20
75.00184524948074
 11
538.2338239023189
 21
62.50096352494095
 72
     1
 10
538.2338239023189
 20
62.50096352494095
 11
552.6684389984026
 21
62.50096352494095
 97
        0
 92
        1
 93
        6
 72
     1
 10
552.6684389984026
 20
32.50070773883477
 11
559.8838517426775
 21
45.00158946337456
 72
     1
 10
559.8838517426775
 20
45.00158946337456
 11
552.6684389984026
 21
57.50074863903536
 72
     1
 10
552.6684389984026
 20
57.50074863903536
 11
538.2338239023189
 21
57.50074863903536
 72
     1
 10
538.2338239023189
 20
57.50074863903536
 11
531.0187556678197
 21
45.00158946337456
 72
     1
 10
531.0187556678197
 20
45.00158946337456
 11
538.2338239023189
 21
32.50070773883477
 72
     1
 10
538.2338239023189
 20
32.50070773883477
 11
552.6684389984026
 21
32.50070773883477
 97
        0
 92
        1
 93
        6
 72
     1
 10
552.6684389984026
 20
212.5008644163687
 11
559.8838517426775
 21
225.0020906506842
 72
     1
 10
559.8838517426775
 20
225.0020906506842
 11
552.6684389984026
 21
237.5009053165693
 72
     1
 10
552.6684389984026
 20
237.5009053165693
 11
538.2338239023189
 21
237.5009053165693
 72
     1
 10
538.2338239023189
 20
237.5009053165693
 11
531.0187556678197
 21
225.0020906506842
 72
     1
 10
531.0187556678197
 20
225.0020906506842
 11
538.2338239023189
 21
212.5008644163687
 72
     1
 10
538.2338239023189
 20
212.5008644163687
 11
552.6684389984026
 21
212.5008644163687
 97
        0
 92
        1
 93
        6
 72
     1
 10
552.6684389984026
 20
242.5007756926991
 11
559.8838517426775
 21
255.0020019270146
 72
     1
 10
559.8838517426775
 20
255.0020019270146
 11
552.6684389984026
 21
267.5008165928996
 72
     1
 10
552.6684389984026
 20
267.5008165928996
 11
538.2338239023189
 21
267.5008165928996
 72
     1
 10
538.2338239023189
 20
267.5008165928996
 11
531.0187556678197
 21
255.0020019270146
 72
     1
 10
531.0187556678197
 20
255.0020019270146
 11
538.2338239023189
 21
242.5007756926991
 72
     1
 10
538.2338239023189
 20
242.5007756926991
 11
552.6684389984026
 21
242.5007756926991
 97
        0
 92
        1
 93
        6
 72
     1
 10
579.3179927051152
 20
167.5006529920973
 11
586.5330609396144
 21
180.0018792264129
 72
     1
 10
586.5330609396144
 20
180.0018792264129
 11
579.3179927051152
 21
192.5006938922979
 72
     1
 10
579.3179927051152
 20
192.5006938922979
 11
564.8833776090315
 21
192.5006938922979
 72
     1
 10
564.8833776090315
 20
192.5006938922979
 11
557.6683093745324
 21
180.0018792264129
 72
     1
 10
557.6683093745324
 20
180.0018792264129
 11
564.8833776090315
 21
167.5006529920973
 72
     1
 10
564.8833776090315
 20
167.5006529920973
 11
579.3179927051152
 21
167.5006529920973
 97
        0
 92
        1
 93
        6
 72
     1
 10
579.3179927051152
 20
137.5007417157669
 11
586.5330609396144
 21
150.0019679500825
 72
     1
 10
586.5330609396144
 20
150.0019679500825
 11
579.3179927051152
 21
162.5007826159675
 72
     1
 10
579.3179927051152
 20
162.5007826159675
 11
564.8833776090315
 21
162.5007826159675
 72
     1
 10
564.8833776090315
 20
162.5007826159675
 11
557.6683093745324
 21
150.0019679500825
 72
     1
 10
557.6683093745324
 20
150.0019679500825
 11
564.8833776090315
 21
137.5007417157669
 72
     1
 10
564.8833776090315
 20
137.5007417157669
 11
579.3179927051152
 21
137.5007417157669
 97
        0
 92
        1
 93
        6
 72
     1
 10
579.3179927051152
 20
107.5008304394365
 11
586.5330609396144
 21
120.0017121639763
 72
     1
 10
586.5330609396144
 20
120.0017121639763
 11
579.3179927051152
 21
132.5008713396371
 72
     1
 10
579.3179927051152
 20
132.5008713396371
 11
564.8833776090315
 21
132.5008713396371
 72
     1
 10
564.8833776090315
 20
132.5008713396371
 11
557.6683093745324
 21
120.0017121639763
 72
     1
 10
557.6683093745324
 20
120.0017121639763
 11
564.8833776090315
 21
107.5008304394365
 72
     1
 10
564.8833776090315
 20
107.5008304394365
 11
579.3179927051152
 21
107.5008304394365
 97
        0
 92
        1
 93
        6
 72
     1
 10
579.3179927051152
 20
77.50091916310615
 11
586.5330609396144
 21
90.00180088764593
 72
     1
 10
586.5330609396144
 20
90.00180088764593
 11
579.3179927051152
 21
102.5009600633067
 72
     1
 10
579.3179927051152
 20
102.5009600633067
 11
564.8833776090315
 21
102.5009600633067
 72
     1
 10
564.8833776090315
 20
102.5009600633067
 11
557.6683093745324
 21
90.00180088764593
 72
     1
 10
557.6683093745324
 20
90.00180088764593
 11
564.8833776090315
 21
77.50091916310615
 72
     1
 10
564.8833776090315
 20
77.50091916310615
 11
579.3179927051152
 21
77.50091916310615
 97
        0
 92
        1
 93
        6
 72
     1
 10
579.3179927051152
 20
47.50100788677576
 11
586.5330609396144
 21
60.00188961131554
 72
     1
 10
586.5330609396144
 20
60.00188961131554
 11
579.3179927051152
 21
72.50104878697634
 72
     1
 10
579.3179927051152
 20
72.50104878697634
 11
564.8833776090315
 21
72.50104878697634
 72
     1
 10
564.8833776090315
 20
72.50104878697634
 11
557.6683093745324
 21
60.00188961131554
 72
     1
 10
557.6683093745324
 20
60.00188961131554
 11
564.8833776090315
 21
47.50100788677576
 72
     1
 10
564.8833776090315
 20
47.50100788677576
 11
579.3179927051152
 21
47.50100788677576
 97
        0
 92
        1
 93
        6
 72
     1
 10
579.3179927051152
 20
17.50075210066958
 11
586.5330609396144
 21
30.00163382520936
 72
     1
 10
586.5330609396144
 20
30.00163382520936
 11
579.3179927051152
 21
42.50079300087017
 72
     1
 10
579.3179927051152
 20
42.50079300087017
 11
564.8833776090315
 21
42.50079300087017
 72
     1
 10
564.8833776090315
 20
42.50079300087017
 11
557.6683093745324
 21
30.00163382520936
 72
     1
 10
557.6683093745324
 20
30.00163382520936
 11
564.8833776090315
 21
17.50075210066958
 72
     1
 10
564.8833776090315
 20
17.50075210066958
 11
579.3179927051152
 21
17.50075210066958
 97
        0
 92
        1
 93
        6
 72
     1
 10
579.3179927051152
 20
197.5009087782035
 11
586.5330609396144
 21
210.0021350125191
 72
     1
 10
586.5330609396144
 20
210.0021350125191
 11
579.3179927051152
 21
222.5009496784041
 72
     1
 10
579.3179927051152
 20
222.5009496784041
 11
564.8833776090315
 21
222.5009496784041
 72
     1
 10
564.8833776090315
 20
222.5009496784041
 11
557.6683093745324
 21
210.0021350125191
 72
     1
 10
557.6683093745324
 20
210.0021350125191
 11
564.8833776090315
 21
197.5009087782035
 72
     1
 10
564.8833776090315
 20
197.5009087782035
 11
579.3179927051152
 21
197.5009087782035
 97
        0
 92
        1
 93
        6
 72
     1
 10
579.3179927051152
 20
227.5008200545338
 11
586.5330609396144
 21
240.0020462888494
 72
     1
 10
586.5330609396144
 20
240.0020462888494
 11
579.3179927051152
 21
252.5008609547344
 72
     1
 10
579.3179927051152
 20
252.5008609547344
 11
564.8833776090315
 21
252.5008609547344
 72
     1
 10
564.8833776090315
 20
252.5008609547344
 11
557.6683093745324
 21
240.0020462888494
 72
     1
 10
557.6683093745324
 20
240.0020462888494
 11
564.8833776090315
 21
227.5008200545338
 72
     1
 10
564.8833776090315
 20
227.5008200545338
 11
579.3179927051152
 21
227.5008200545338
 97
        0
 92
        1
 93
        6
 72
     1
 10
605.9675464118279
 20
182.5006086302625
 11
613.1829591561028
 21
195.0018348645781
 72
     1
 10
613.1829591561028
 20
195.0018348645781
 11
605.9675464118279
 21
207.5006495304631
 72
     1
 10
605.9675464118279
 20
207.5006495304631
 11
591.5329313157442
 21
207.5006495304631
 72
     1
 10
591.5329313157442
 20
207.5006495304631
 11
584.317863081245
 21
195.0018348645781
 72
     1
 10
584.317863081245
 20
195.0018348645781
 11
591.5329313157442
 21
182.5006086302625
 72
     1
 10
591.5329313157442
 20
182.5006086302625
 11
605.9675464118279
 21
182.5006086302625
 97
        0
 92
        1
 93
        6
 72
     1
 10
605.9675464118279
 20
152.5006973539321
 11
613.1829591561028
 21
165.0019235882477
 72
     1
 10
613.1829591561028
 20
165.0019235882477
 11
605.9675464118279
 21
177.5007382541327
 72
     1
 10
605.9675464118279
 20
177.5007382541327
 11
591.5329313157442
 21
177.5007382541327
 72
     1
 10
591.5329313157442
 20
177.5007382541327
 11
584.317863081245
 21
165.0019235882477
 72
     1
 10
584.317863081245
 20
165.0019235882477
 11
591.5329313157442
 21
152.5006973539321
 72
     1
 10
591.5329313157442
 20
152.5006973539321
 11
605.9675464118279
 21
152.5006973539321
 97
        0
 92
        1
 93
        6
 72
     1
 10
605.9675464118279
 20
122.5007860776017
 11
613.1829591561028
 21
135.0016678021415
 72
     1
 10
613.1829591561028
 20
135.0016678021415
 11
605.9675464118279
 21
147.5008269778023
 72
     1
 10
605.9675464118279
 20
147.5008269778023
 11
591.5329313157442
 21
147.5008269778023
 72
     1
 10
591.5329313157442
 20
147.5008269778023
 11
584.317863081245
 21
135.0016678021415
 72
     1
 10
584.317863081245
 20
135.0016678021415
 11
591.5329313157442
 21
122.5007860776017
 72
     1
 10
591.5329313157442
 20
122.5007860776017
 11
605.9675464118279
 21
122.5007860776017
 97
        0
 92
        1
 93
        6
 72
     1
 10
605.9675464118279
 20
92.50087480127134
 11
613.1829591561028
 21
105.0017565258111
 72
     1
 10
613.1829591561028
 20
105.0017565258111
 11
605.9675464118279
 21
117.5009157014719
 72
     1
 10
605.9675464118279
 20
117.5009157014719
 11
591.5329313157442
 21
117.5009157014719
 72
     1
 10
591.5329313157442
 20
117.5009157014719
 11
584.317863081245
 21
105.0017565258111
 72
     1
 10
584.317863081245
 20
105.0017565258111
 11
591.5329313157442
 21
92.50087480127134
 72
     1
 10
591.5329313157442
 20
92.50087480127134
 11
605.9675464118279
 21
92.50087480127134
 97
        0
 92
        1
 93
        6
 72
     1
 10
605.9675464118279
 20
62.50096352494095
 11
613.1829591561028
 21
75.00184524948074
 72
     1
 10
613.1829591561028
 20
75.00184524948074
 11
605.9675464118279
 21
87.50100442514153
 72
     1
 10
605.9675464118279
 20
87.50100442514153
 11
591.5329313157442
 21
87.50100442514153
 72
     1
 10
591.5329313157442
 20
87.50100442514153
 11
584.317863081245
 21
75.00184524948074
 72
     1
 10
584.317863081245
 20
75.00184524948074
 11
591.5329313157442
 21
62.50096352494095
 72
     1
 10
591.5329313157442
 20
62.50096352494095
 11
605.9675464118279
 21
62.50096352494095
 97
        0
 92
        1
 93
        6
 72
     1
 10
605.9675464118279
 20
32.50070773883477
 11
613.1829591561028
 21
45.00158946337456
 72
     1
 10
613.1829591561028
 20
45.00158946337456
 11
605.9675464118279
 21
57.50074863903536
 72
     1
 10
605.9675464118279
 20
57.50074863903536
 11
591.5329313157442
 21
57.50074863903536
 72
     1
 10
591.5329313157442
 20
57.50074863903536
 11
584.317863081245
 21
45.00158946337456
 72
     1
 10
584.317863081245
 20
45.00158946337456
 11
591.5329313157442
 21
32.50070773883477
 72
     1
 10
591.5329313157442
 20
32.50070773883477
 11
605.9675464118279
 21
32.50070773883477
 97
        0
 92
        1
 93
        6
 72
     1
 10
605.9675464118279
 20
212.5008644163687
 11
613.1829591561028
 21
225.0020906506842
 72
     1
 10
613.1829591561028
 20
225.0020906506842
 11
605.9675464118279
 21
237.5009053165693
 72
     1
 10
605.9675464118279
 20
237.5009053165693
 11
591.5329313157442
 21
237.5009053165693
 72
     1
 10
591.5329313157442
 20
237.5009053165693
 11
584.317863081245
 21
225.0020906506842
 72
     1
 10
584.317863081245
 20
225.0020906506842
 11
591.5329313157442
 21
212.5008644163687
 72
     1
 10
591.5329313157442
 20
212.5008644163687
 11
605.9675464118279
 21
212.5008644163687
 97
        0
 92
        1
 93
        6
 72
     1
 10
605.9675464118279
 20
242.5007756926991
 11
613.1829591561028
 21
255.0020019270146
 72
     1
 10
613.1829591561028
 20
255.0020019270146
 11
605.9675464118279
 21
267.5008165928996
 72
     1
 10
605.9675464118279
 20
267.5008165928996
 11
591.5329313157442
 21
267.5008165928996
 72
     1
 10
591.5329313157442
 20
267.5008165928996
 11
584.317863081245
 21
255.0020019270146
 72
     1
 10
584.317863081245
 20
255.0020019270146
 11
591.5329313157442
 21
242.5007756926991
 72
     1
 10
591.5329313157442
 20
242.5007756926991
 11
605.9675464118279
 21
242.5007756926991
 97
        0
 75
     2
 76
     1
 98
        0
  0
ENDSEC
  0
SECTION
  2
OBJECTS
  0
DICTIONARY
  5
C
330
0
100
AcDbDictionary
281
     1
  3
ACAD_GROUP
350
D
  3
ACAD_LAYOUT
350
1A
  3
ACAD_MLINESTYLE
350
17
  3
ACAD_PLOTSETTINGS
350
19
  3
ACAD_PLOTSTYLENAME
350
E
  3
ACAD_TABLESTYLE
350
484
  3
ACAD_VISUALSTYLE
350
2A
  0
DICTIONARY
  5
D
102
{ACAD_REACTORS
330
C
102
}
330
C
100
AcDbDictionary
281
     1
  0
DICTIONARY
  5
1A
102
{ACAD_REACTORS
330
C
102
}
330
C
100
AcDbDictionary
281
     1
  3
Layout1
350
1E
  3
Layout2
350
26
  3
Model
350
22
  0
DICTIONARY
  5
17
102
{ACAD_REACTORS
330
C
102
}
330
C
100
AcDbDictionary
281
     1
  3
Standard
350
18
  0
DICTIONARY
  5
19
102
{ACAD_REACTORS
330
C
102
}
330
C
100
AcDbDictionary
281
     1
  0
ACDBDICTIONARYWDFLT
  5
E
102
{ACAD_REACTORS
330
C
102
}
330
C
100
AcDbDictionary
281
     1
  3
Normal
350
F
100
AcDbDictionaryWithDefault
340
F
  0
DICTIONARY
  5
484
102
{ACAD_REACTORS
330
C
102
}
330
C
100
AcDbDictionary
281
     1
  0
DICTIONARY
  5
2A
102
{ACAD_REACTORS
330
C
102
}
330
C
100
AcDbDictionary
281
     1
  3
2dWireframe
350
2F
  3
3D Hidden
350
31
  3
3dWireframe
350
30
  3
Basic
350
32
  3
Brighten
350
36
  3
ColorChange
350
3A
  3
Conceptual
350
34
  3
Dim
350
35
  3
Facepattern
350
39
  3
Flat
350
2B
  3
FlatWithEdges
350
2C
  3
Gouraud
350
2D
  3
GouraudWithEdges
350
2E
  3
Linepattern
350
38
  3
Realistic
350
33
  3
Thicken
350
37
  0
LAYOUT
  5
1E
102
{ACAD_REACTORS
330
1A
102
}
330
1A
100
AcDbPlotSettings
  1

  2
none_device
  4

  6

 40
0.0
 41
0.0
 42
0.0
 43
0.0
 44
0.0
 45
0.0
 46
0.0
 47
0.0
 48
0.0
 49
0.0
140
0.0
141
0.0
142
1.0
143
1.0
 70
   688
 72
     0
 73
     0
 74
     5
  7

 75
    16
 76
     0
 77
     2
 78
   300
147
1.0
148
0.0
149
0.0
100
AcDbLayout
  1
Layout1
 70
     1
 71
     1
 10
0.0
 20
0.0
 11
12.0
 21
9.0
 12
0.0
 22
0.0
 32
0.0
 14
1.000000000000000E+20
 24
1.000000000000000E+20
 34
1.000000000000000E+20
 15
-1.000000000000000E+20
 25
-1.000000000000000E+20
 35
-1.000000000000000E+20
146
0.0
 13
0.0
 23
0.0
 33
0.0
 16
1.0
 26
0.0
 36
0.0
 17
0.0
 27
1.0
 37
0.0
 76
     0
330
1B
  0
LAYOUT
  5
26
102
{ACAD_REACTORS
330
1A
102
}
330
1A
100
AcDbPlotSettings
  1

  2
none_device
  4

  6

 40
0.0
 41
0.0
 42
0.0
 43
0.0
 44
0.0
 45
0.0
 46
0.0
 47
0.0
 48
0.0
 49
0.0
140
0.0
141
0.0
142
1.0
143
1.0
 70
   688
 72
     0
 73
     0
 74
     5
  7

 75
    16
 76
     0
 77
     2
 78
   300
147
1.0
148
0.0
149
0.0
100
AcDbLayout
  1
Layout2
 70
     1
 71
     2
 10
0.0
 20
0.0
 11
0.0
 21
0.0
 12
0.0
 22
0.0
 32
0.0
 14
0.0
 24
0.0
 34
0.0
 15
0.0
 25
0.0
 35
0.0
146
0.0
 13
0.0
 23
0.0
 33
0.0
 16
1.0
 26
0.0
 36
0.0
 17
0.0
 27
1.0
 37
0.0
 76
     0
330
23
  0
LAYOUT
  5
22
102
{ACAD_REACTORS
330
1A
102
}
330
1A
100
AcDbPlotSettings
  1

  2
none_device
  4

  6

 40
0.0
 41
0.0
 42
0.0
 43
0.0
 44
0.0
 45
0.0
 46
0.0
 47
0.0
 48
0.0
 49
0.0
140
0.0
141
0.0
142
1.0
143
1.0
 70
  1712
 72
     0
 73
     0
 74
     0
  7

 75
     0
 76
     0
 77
     2
 78
   300
147
1.0
148
0.0
149
0.0
100
AcDbLayout
  1
Model
 70
     1
 71
     0
 10
0.0
 20
0.0
 11
12.0
 21
9.0
 12
0.0
 22
0.0
 32
0.0
 14
1.000000000000000E+20
 24
1.000000000000000E+20
 34
1.000000000000000E+20
 15
-1.000000000000000E+20
 25
-1.000000000000000E+20
 35
-1.000000000000000E+20
146
0.0
 13
0.0
 23
0.0
 33
0.0
 16
1.0
 26
0.0
 36
0.0
 17
0.0
 27
1.0
 37
0.0
 76
     0
330
1F
331
29
  0
MLINESTYLE
  5
18
102
{ACAD_REACTORS
330
17
102
}
330
17
100
AcDbMlineStyle
  2
Standard
 70
     0
  3

 62
   256
 51
90.0
 52
90.0
 71
     2
 49
0.5
 62
   256
  6
BYLAYER
 49
-0.5
 62
   256
  6
BYLAYER
  0
ACDBPLACEHOLDER
  5
F
102
{ACAD_REACTORS
330
E
102
}
330
E
  0
VISUALSTYLE
  5
2F
102
{ACAD_REACTORS
330
2A
102
}
330
2A
100
AcDbVisualStyle
  2
2dWireframe
 70
     4
 71
     0
 72
     2
 73
     0
 90
        0
 40
-0.6
 41
-30.0
 62
     5
 63
     7
421
 16777215
 74
     1
 91
        4
 64
     7
 65
   257
 75
     1
175
     1
 42
1.0
 92
        0
 66
   257
 43
1.0
 76
     1
 77
     6
 78
     2
 67
     7
 79
     5
170
     0
171
     0
290
     0
174
     0
 93
        1
 44
0.0
173
     0
291
     0
 45
0.0
1001
ACAD
1000
AcDbSavedByObjectVersion
1070
     0
  0
VISUALSTYLE
  5
31
102
{ACAD_REACTORS
330
2A
102
}
330
2A
100
AcDbVisualStyle
  2
3D Hidden
 70
     6
 71
     1
 72
     2
 73
     2
 90
        0
 40
-0.6
 41
-30.0
 62
     5
 63
     7
421
 16777215
 74
     2
 91
        2
 64
     7
 65
   257
 75
     2
175
     1
 42
40.0
 92
        0
 66
   257
 43
1.0
 76
     1
 77
     6
 78
     2
 67
     7
 79
     3
170
     0
171
     0
290
     0
174
     0
 93
        1
 44
0.0
173
     0
291
     0
 45
0.0
1001
ACAD
1000
AcDbSavedByObjectVersion
1070
     0
  0
VISUALSTYLE
  5
30
102
{ACAD_REACTORS
330
2A
102
}
330
2A
100
AcDbVisualStyle
  2
3dWireframe
 70
     5
 71
     0
 72
     2
 73
     0
 90
        0
 40
-0.6
 41
-30.0
 62
     5
 63
     7
421
 16777215
 74
     1
 91
        4
 64
     7
 65
   257
 75
     1
175
     1
 42
1.0
 92
        0
 66
   257
 43
1.0
 76
     1
 77
     6
 78
     2
 67
     7
 79
     5
170
     0
171
     0
290
     0
174
     0
 93
        1
 44
0.0
173
     0
291
     0
 45
0.0
1001
ACAD
1000
AcDbSavedByObjectVersion
1070
     0
  0
VISUALSTYLE
  5
32
102
{ACAD_REACTORS
330
2A
102
}
330
2A
100
AcDbVisualStyle
  2
Basic
 70
     7
 71
     1
 72
     0
 73
     1
 90
        0
 40
-0.6
 41
-30.0
 62
     5
 63
     7
421
 16777215
 74
     0
 91
        4
 64
     7
 65
   257
 75
     1
175
     1
 42
1.0
 92
        8
 66
     7
 43
1.0
 76
     1
 77
     6
 78
     2
 67
     7
 79
     5
170
     0
171
     0
290
     0
174
     0
 93
        1
 44
0.0
173
     0
291
     1
 45
0.0
1001
ACAD
1000
AcDbSavedByObjectVersion
1070
     0
  0
VISUALSTYLE
  5
36
102
{ACAD_REACTORS
330
2A
102
}
330
2A
100
AcDbVisualStyle
  2
Brighten
 70
    12
 71
     2
 72
     2
 73
     0
 90
        0
 40
-0.6
 41
-30.0
 62
     5
 63
     7
421
 16777215
 74
     1
 91
        4
 64
     7
 65
   257
 75
     1
175
     1
 42
1.0
 92
        8
 66
     7
 43
1.0
 76
     1
 77
     6
 78
     2
 67
     7
 79
     5
170
     0
171
     0
290
     0
174
     0
 93
        1
 44
50.0
173
     0
291
     1
 45
0.0
1001
ACAD
1000
AcDbSavedByObjectVersion
1070
     0
  0
VISUALSTYLE
  5
3A
102
{ACAD_REACTORS
330
2A
102
}
330
2A
100
AcDbVisualStyle
  2
ColorChange
 70
    16
 71
     2
 72
     2
 73
     3
 90
        0
 40
-0.6
 41
-30.0
 62
     5
 63
     8
421
  8421504
 74
     1
 91
        4
 64
     7
 65
   257
 75
     1
175
     1
 42
1.0
 92
        8
 66
     8
424
  8421504
 43
1.0
 76
     1
 77
     6
 78
     2
 67
     7
 79
     5
170
     0
171
     0
290
     0
174
     0
 93
        1
 44
0.0
173
     0
291
     1
 45
0.0
1001
ACAD
1000
AcDbSavedByObjectVersion
1070
     0
  0
VISUALSTYLE
  5
34
102
{ACAD_REACTORS
330
2A
102
}
330
2A
100
AcDbVisualStyle
  2
Conceptual
 70
     9
 71
     3
 72
     2
 73
     0
 90
        0
 40
-0.6
 41
-30.0
 62
     5
 63
     7
421
 16777215
 74
     2
 91
        2
 64
     7
 65
   257
 75
     1
175
     1
 42
40.0
 92
        8
 66
     7
 43
1.0
 76
     1
 77
     6
 78
     2
 67
     7
 79
     3
170
     0
171
     0
290
     0
174
     0
 93
        1
 44
0.0
173
     0
291
     0
 45
0.0
1001
ACAD
1000
AcDbSavedByObjectVersion
1070
     0
  0
VISUALSTYLE
  5
35
102
{ACAD_REACTORS
330
2A
102
}
330
2A
100
AcDbVisualStyle
  2
Dim
 70
    11
 71
     2
 72
     2
 73
     0
 90
        0
 40
-0.6
 41
-30.0
 62
     5
 63
     7
421
 16777215
 74
     1
 91
        4
 64
     7
 65
   257
 75
     1
175
     1
 42
1.0
 92
        8
 66
     7
 43
1.0
 76
     1
 77
     6
 78
     2
 67
     7
 79
     5
170
     0
171
     0
290
     0
174
     0
 93
        1
 44
-50.0
173
     0
291
     1
 45
0.0
1001
ACAD
1000
AcDbSavedByObjectVersion
1070
     0
  0
VISUALSTYLE
  5
39
102
{ACAD_REACTORS
330
2A
102
}
330
2A
100
AcDbVisualStyle
  2
Facepattern
 70
    15
 71
     2
 72
     2
 73
     0
 90
        0
 40
-0.6
 41
-30.0
 62
     5
 63
     7
421
 16777215
 74
     1
 91
        4
 64
     7
 65
   257
 75
     1
175
     1
 42
1.0
 92
        8
 66
     7
 43
1.0
 76
     1
 77
     6
 78
     2
 67
     7
 79
     5
170
     0
171
     0
290
     0
174
     0
 93
        1
 44
0.0
173
     0
291
     1
 45
0.0
1001
ACAD
1000
AcDbSavedByObjectVersion
1070
     0
  0
VISUALSTYLE
  5
2B
102
{ACAD_REACTORS
330
2A
102
}
330
2A
100
AcDbVisualStyle
  2
Flat
 70
     0
 71
     2
 72
     1
 73
     1
 90
        2
 40
-0.6
 41
30.0
 62
     5
 63
     7
421
 16777215
 74
     0
 91
        4
 64
     7
 65
   257
 75
     1
175
     1
 42
1.0
 92
        8
 66
     7
 43
1.0
 76
     1
 77
     6
 78
     2
 67
     7
 79
     5
170
     0
171
     0
290
     0
174
     0
 93
       13
 44
0.0
173
     0
291
     1
 45
0.0
1001
ACAD
1000
AcDbSavedByObjectVersion
1070
     0
  0
VISUALSTYLE
  5
2C
102
{ACAD_REACTORS
330
2A
102
}
330
2A
100
AcDbVisualStyle
  2
FlatWithEdges
 70
     1
 71
     2
 72
     1
 73
     1
 90
        2
 40
-0.6
 41
30.0
 62
     5
 63
     7
421
 16777215
 74
     1
 91
        4
 64
     7
 65
   257
 75
     1
175
     1
 42
1.0
 92
        0
 66
   257
 43
1.0
 76
     1
 77
     6
 78
     2
 67
     7
 79
     5
170
     0
171
     0
290
     0
174
     0
 93
       13
 44
0.0
173
     0
291
     1
 45
0.0
1001
ACAD
1000
AcDbSavedByObjectVersion
1070
     0
  0
VISUALSTYLE
  5
2D
102
{ACAD_REACTORS
330
2A
102
}
330
2A
100
AcDbVisualStyle
  2
Gouraud
 70
     2
 71
     2
 72
     2
 73
     1
 90
        2
 40
-0.6
 41
30.0
 62
     5
 63
     7
421
 16777215
 74
     0
 91
        4
 64
     7
 65
   257
 75
     1
175
     1
 42
1.0
 92
        0
 66
     7
 43
1.0
 76
     1
 77
     6
 78
     2
 67
     7
 79
     5
170
     0
171
     0
290
     0
174
     0
 93
       13
 44
0.0
173
     0
291
     1
 45
0.0
1001
ACAD
1000
AcDbSavedByObjectVersion
1070
     0
  0
VISUALSTYLE
  5
2E
102
{ACAD_REACTORS
330
2A
102
}
330
2A
100
AcDbVisualStyle
  2
GouraudWithEdges
 70
     3
 71
     2
 72
     2
 73
     1
 90
        2
 40
-0.6
 41
30.0
 62
     5
 63
     7
421
 16777215
 74
     1
 91
        4
 64
     7
 65
   257
 75
     1
175
     1
 42
1.0
 92
        0
 66
   257
 43
1.0
 76
     1
 77
     6
 78
     2
 67
     7
 79
     5
170
     0
171
     0
290
     0
174
     0
 93
       13
 44
0.0
173
     0
291
     1
 45
0.0
1001
ACAD
1000
AcDbSavedByObjectVersion
1070
     0
  0
VISUALSTYLE
  5
38
102
{ACAD_REACTORS
330
2A
102
}
330
2A
100
AcDbVisualStyle
  2
Linepattern
 70
    14
 71
     2
 72
     2
 73
     0
 90
        0
 40
-0.6
 41
-30.0
 62
     5
 63
     7
421
 16777215
 74
     1
 91
        4
 64
     7
 65
   257
 75
     7
175
     7
 42
1.0
 92
        8
 66
     7
 43
1.0
 76
     1
 77
     6
 78
     2
 67
     7
 79
     5
170
     0
171
     0
290
     0
174
     0
 93
        1
 44
0.0
173
     0
291
     1
 45
0.0
1001
ACAD
1000
AcDbSavedByObjectVersion
1070
     0
  0
VISUALSTYLE
  5
33
102
{ACAD_REACTORS
330
2A
102
}
330
2A
100
AcDbVisualStyle
  2
Realistic
 70
     8
 71
     2
 72
     2
 73
     0
 90
        0
 40
-0.6
 41
-30.0
 62
     5
 63
     7
421
 16777215
 74
     1
 91
        0
 64
     7
 65
   257
 75
     1
175
     1
 42
1.0
 92
        8
 66
     8
424
  7895160
 43
1.0
 76
     1
 77
     6
 78
     2
 67
     7
 79
     5
170
     0
171
     0
290
     0
174
     0
 93
       13
 44
0.0
173
     0
291
     0
 45
0.0
1001
ACAD
1000
AcDbSavedByObjectVersion
1070
     0
  0
VISUALSTYLE
  5
37
102
{ACAD_REACTORS
330
2A
102
}
330
2A
100
AcDbVisualStyle
  2
Thicken
 70
    13
 71
     2
 72
     2
 73
     0
 90
        0
 40
-0.6
 41
-30.0
 62
     5
 63
     7
421
 16777215
 74
     1
 91
        4
 64
     7
 65
   257
 75
     1
175
     1
 42
1.0
 92
       12
 66
     7
 43
1.0
 76
     1
 77
     6
 78
     2
 67
     7
 79
     5
170
     0
171
     0
290
     0
174
     0
 93
        1
 44
0.0
173
     0
291
     1
 45
0.0
1001
ACAD
1000
AcDbSavedByObjectVersion
1070
     0
  0
ENDSEC
  0
EOF
