  0
SECTION
  2
HEADER
  9
$ACADVER
  1
AC1018
  9
$ACADMAINTVER
 70
     0
  9
$DWGCODEPAGE
  3
ASCII
  9
$INSBASE
 10
0.0
 20
0.0
 30
0.0
  9
$EXTMIN
 10
1.000000000000000E+20
 20
1.000000000000000E+20
 30
1.000000000000000E+20
  9
$EXTMAX
 10
-1.000000000000000E+20
 20
-1.000000000000000E+20
 30
-1.000000000000000E+20
  9
$LIMMIN
 10
0.0
 20
0.0
  9
$LIMMAX
 10
12.0
 20
9.0
  9
$ORTHOMODE
 70
     0
  9
$REGENMODE
 70
     1
  9
$FILLMODE
 70
     1
  9
$QTEXTMODE
 70
     0
  9
$MIRRTEXT
 70
     1
  9
$LTSCALE
 40
1.0
  9
$ATTMODE
 70
     1
  9
$TEXTSIZE
 40
0.2
  9
$TRACEWID
 40
0.05
  9
$TEXTSTYLE
  7
Standard
  9
$CLAYER
  8
0
  9
$CELTYPE
  6
ByLayer
  9
$CECOLOR
 62
   256
  9
$CELTSCALE
 40
1.0
  9
$DISPSILH
 70
     0
  9
$DIMSCALE
 40
1.0
  9
$DIMASZ
 40
0.18
  9
$DIMEXO
 40
0.0625
  9
$DIMDLI
 40
0.38
  9
$DIMRND
 40
0.0
  9
$DIMDLE
 40
0.0
  9
$DIMEXE
 40
0.18
  9
$DIMTP
 40
0.0
  9
$DIMTM
 40
0.0
  9
$DIMTXT
 40
0.18
  9
$DIMCEN
 40
0.09
  9
$DIMTSZ
 40
0.0
  9
$DIMTOL
 70
     0
  9
$DIMLIM
 70
     0
  9
$DIMTIH
 70
     1
  9
$DIMTOH
 70
     1
  9
$DIMSE1
 70
     0
  9
$DIMSE2
 70
     0
  9
$DIMTAD
 70
     0
  9
$DIMZIN
 70
     0
  9
$DIMBLK
  1

  9
$DIMASO
 70
     1
  9
$DIMSHO
 70
     1
  9
$DIMPOST
  1

  9
$DIMAPOST
  1

  9
$DIMALT
 70
     0
  9
$DIMALTD
 70
     2
  9
$DIMALTF
 40
25.4
  9
$DIMLFAC
 40
1.0
  9
$DIMTOFL
 70
     0
  9
$DIMTVP
 40
0.0
  9
$DIMTIX
 70
     0
  9
$DIMSOXD
 70
     0
  9
$DIMSAH
 70
     0
  9
$DIMBLK1
  1

  9
$DIMBLK2
  1

  9
$DIMSTYLE
  2
Standard
  9
$DIMCLRD
 70
     0
  9
$DIMCLRE
 70
     0
  9
$DIMCLRT
 70
     0
  9
$DIMTFAC
 40
1.0
  9
$DIMGAP
 40
0.09
  9
$DIMJUST
 70
     0
  9
$DIMSD1
 70
     0
  9
$DIMSD2
 70
     0
  9
$DIMTOLJ
 70
     1
  9
$DIMTZIN
 70
     0
  9
$DIMALTZ
 70
     0
  9
$DIMALTTZ
 70
     0
  9
$DIMUPT
 70
     0
  9
$DIMDEC
 70
     4
  9
$DIMTDEC
 70
     4
  9
$DIMALTU
 70
     2
  9
$DIMALTTD
 70
     2
  9
$DIMTXSTY
  7
Standard
  9
$DIMAUNIT
 70
     0
  9
$DIMADEC
 70
     0
  9
$DIMALTRND
 40
0.0
  9
$DIMAZIN
 70
     0
  9
$DIMDSEP
 70
    46
  9
$DIMATFIT
 70
     3
  9
$DIMFRAC
 70
     0
  9
$DIMLDRBLK
  1

  9
$DIMLUNIT
 70
     2
  9
$DIMLWD
 70
    -2
  9
$DIMLWE
 70
    -2
  9
$DIMTMOVE
 70
     0
  9
$LUNITS
 70
     2
  9
$LUPREC
 70
     4
  9
$SKETCHINC
 40
0.1
  9
$FILLETRAD
 40
0.5
  9
$AUNITS
 70
     0
  9
$AUPREC
 70
     0
  9
$MENU
  1
.
  9
$ELEVATION
 40
0.0
  9
$PELEVATION
 40
0.0
  9
$THICKNESS
 40
0.0
  9
$LIMCHECK
 70
     0
  9
$CHAMFERA
 40
0.5
  9
$CHAMFERB
 40
0.5
  9
$CHAMFERC
 40
1.0
  9
$CHAMFERD
 40
0.0
  9
$SKPOLY
 70
     0
  9
$TDCREATE
 40
2457052.907403299
  9
$TDUCREATE
 40
2457052.865736632
  9
$TDUPDATE
 40
2457052.90740331
  9
$TDUUPDATE
 40
2457052.865736643
  9
$TDINDWG
 40
0.0000000116
  9
$TDUSRTIMER
 40
0.0000000116
  9
$USRTIMER
 70
     1
  9
$ANGBASE
 50
0.0
  9
$ANGDIR
 70
     0
  9
$PDMODE
 70
     0
  9
$PDSIZE
 40
0.0
  9
$PLINEWID
 40
0.0
  9
$SPLFRAME
 70
     0
  9
$SPLINETYPE
 70
     6
  9
$SPLINESEGS
 70
     8
  9
$HANDSEED
  5
114
  9
$SURFTAB1
 70
     6
  9
$SURFTAB2
 70
     6
  9
$SURFTYPE
 70
     6
  9
$SURFU
 70
     6
  9
$SURFV
 70
     6
  9
$UCSBASE
  2

  9
$UCSNAME
  2

  9
$UCSORG
 10
0.0
 20
0.0
 30
0.0
  9
$UCSXDIR
 10
1.0
 20
0.0
 30
0.0
  9
$UCSYDIR
 10
0.0
 20
1.0
 30
0.0
  9
$UCSORTHOREF
  2

  9
$UCSORTHOVIEW
 70
     0
  9
$UCSORGTOP
 10
0.0
 20
0.0
 30
0.0
  9
$UCSORGBOTTOM
 10
0.0
 20
0.0
 30
0.0
  9
$UCSORGLEFT
 10
0.0
 20
0.0
 30
0.0
  9
$UCSORGRIGHT
 10
0.0
 20
0.0
 30
0.0
  9
$UCSORGFRONT
 10
0.0
 20
0.0
 30
0.0
  9
$UCSORGBACK
 10
0.0
 20
0.0
 30
0.0
  9
$PUCSBASE
  2

  9
$PUCSNAME
  2

  9
$PUCSORG
 10
0.0
 20
0.0
 30
0.0
  9
$PUCSXDIR
 10
1.0
 20
0.0
 30
0.0
  9
$PUCSYDIR
 10
0.0
 20
1.0
 30
0.0
  9
$PUCSORTHOREF
  2

  9
$PUCSORTHOVIEW
 70
     0
  9
$PUCSORGTOP
 10
0.0
 20
0.0
 30
0.0
  9
$PUCSORGBOTTOM
 10
0.0
 20
0.0
 30
0.0
  9
$PUCSORGLEFT
 10
0.0
 20
0.0
 30
0.0
  9
$PUCSORGRIGHT
 10
0.0
 20
0.0
 30
0.0
  9
$PUCSORGFRONT
 10
0.0
 20
0.0
 30
0.0
  9
$PUCSORGBACK
 10
0.0
 20
0.0
 30
0.0
  9
$USERI1
 70
     0
  9
$USERI2
 70
     0
  9
$USERI3
 70
     0
  9
$USERI4
 70
     0
  9
$USERI5
 70
     0
  9
$USERR1
 40
0.0
  9
$USERR2
 40
0.0
  9
$USERR3
 40
0.0
  9
$USERR4
 40
0.0
  9
$USERR5
 40
0.0
  9
$WORLDVIEW
 70
     1
  9
$SHADEDGE
 70
     3
  9
$SHADEDIF
 70
    70
  9
$TILEMODE
 70
     1
  9
$MAXACTVP
 70
    64
  9
$PINSBASE
 10
0.0
 20
0.0
 30
0.0
  9
$PLIMCHECK
 70
     0
  9
$PEXTMIN
 10
1.000000000000000E+20
 20
1.000000000000000E+20
 30
1.000000000000000E+20
  9
$PEXTMAX
 10
-1.000000000000000E+20
 20
-1.000000000000000E+20
 30
-1.000000000000000E+20
  9
$PLIMMIN
 10
0.0
 20
0.0
  9
$PLIMMAX
 10
12.0
 20
9.0
  9
$UNITMODE
 70
     0
  9
$VISRETAIN
 70
     1
  9
$PLINEGEN
 70
     0
  9
$PSLTSCALE
 70
     1
  9
$TREEDEPTH
 70
  3020
  9
$CMLSTYLE
  2
Standard
  9
$CMLJUST
 70
     0
  9
$CMLSCALE
 40
1.0
  9
$PROXYGRAPHICS
 70
     1
  9
$MEASUREMENT
 70
     0
  9
$CELWEIGHT
370
    -1
  9
$ENDCAPS
280
     0
  9
$JOINSTYLE
280
     0
  9
$LWDISPLAY
290
     1
  9
$INSUNITS
 70
     1
  9
$HYPERLINKBASE
  1

  9
$STYLESHEET
  1

  9
$XEDIT
290
     1
  9
$CEPSNTYPE
380
     0
  9
$PSTYLEMODE
290
     1
  9
$FINGERPRINTGUID
  2
{AA0EBF6B-A9E2-4599-A463-3ED7D3ABD68E}
  9
$VERSIONGUID
  2
{FAEB1C32-E019-11D5-929B-00C0DF256EC4}
  9
$EXTNAMES
290
     1
  9
$PSVPSCALE
 40
0.0
  9
$OLESTARTUP
290
     0
  9
$SORTENTS
280
   127
  9
$INDEXCTL
280
     0
  9
$HIDETEXT
280
     1
  9
$XCLIPFRAME
290
     0
  9
$HALOGAP
280
     0
  9
$OBSCOLOR
 70
   257
  9
$OBSLTYPE
280
     0
  9
$INTERSECTIONDISPLAY
280
     0
  9
$INTERSECTIONCOLOR
 70
   257
  9
$DIMASSOC
280
     2
  9
$PROJECTNAME
  1

  0
ENDSEC
  0
SECTION
  2
CLASSES
  0
CLASS
  1
ACDBDICTIONARYWDFLT
  2
AcDbDictionaryWithDefault
  3
ObjectDBX Classes
 90
        0
 91
        3
280
     0
281
     0
  0
CLASS
  1
VISUALSTYLE
  2
AcDbVisualStyle
  3
ObjectDBX Classes
 90
     4095
 91
        3
280
     0
281
     0
  0
ENDSEC
  0
SECTION
  2
TABLES
  0
TABLE
  2
VPORT
  5
8
330
0
100
AcDbSymbolTable
 70
     1
  0
VPORT
  5
29
330
8
100
AcDbSymbolTableRecord
100
AcDbViewportTableRecord
  2
*Active
 70
     0
 10
0.0
 20
0.0
 11
1.0
 21
1.0
 12
0.0
 22
0.0
 13
0.0
 23
0.0
 14
0.5
 24
0.5
 15
0.5
 25
0.5
 16
0.0
 26
0.0
 36
1.0
 17
152.5006973539321
 27
152.5006973539321
 37
0.0
 40
76.20005024969983
 41
1.333333333333333
 42
50.0
 43
0.0
 44
0.0
 50
0.0
 51
0.0
 71
     0
 72
   100
 73
     1
 74
     3
 75
     0
 76
     0
 77
     0
 78
     0
281
     0
 65
     1
110
0.0
120
0.0
130
0.0
111
1.0
121
0.0
131
0.0
112
0.0
122
1.0
132
0.0
 79
     0
146
0.0
  0
ENDTAB
  0
TABLE
  2
LTYPE
  5
5
330
0
100
AcDbSymbolTable
 70
     1
  0
LTYPE
  5
14
330
5
100
AcDbSymbolTableRecord
100
AcDbLinetypeTableRecord
  2
ByBlock
 70
     0
  3

 72
    65
 73
     0
 40
0.0
  0
LTYPE
  5
15
330
5
100
AcDbSymbolTableRecord
100
AcDbLinetypeTableRecord
  2
ByLayer
 70
     0
  3

 72
    65
 73
     0
 40
0.0
  0
LTYPE
  5
16
330
5
100
AcDbSymbolTableRecord
100
AcDbLinetypeTableRecord
  2
Continuous
 70
     0
  3
Solid line
 72
    65
 73
     0
 40
0.0
  0
ENDTAB
  0
TABLE
  2
LAYER
  5
2
330
0
100
AcDbSymbolTable
 70
     4
  0
LAYER
  5
10
330
2
100
AcDbSymbolTableRecord
100
AcDbLayerTableRecord
  2
0
 70
     0
 62
     7
  6
Continuous
370
    -3
390
F
  0
LAYER
  5
3B
330
2
100
AcDbSymbolTableRecord
100
AcDbLayerTableRecord
  2
Ebene 9
 70
     1
 62
     7
  6
Continuous
370
    -3
390
F
  0
LAYER
  5
60
330
2
100
AcDbSymbolTableRecord
100
AcDbLayerTableRecord
  2
Ebene 4
 70
     1
 62
     7
  6
Continuous
370
    -3
390
F
  0
LAYER
  5
63
330
2
100
AcDbSymbolTableRecord
100
AcDbLayerTableRecord
  2
Ebene 2
 70
     0
 62
     7
  6
Continuous
370
    -3
390
F
  0
ENDTAB
  0
TABLE
  2
STYLE
  5
3
330
0
100
AcDbSymbolTable
 70
     1
  0
STYLE
  5
11
330
3
100
AcDbSymbolTableRecord
100
AcDbTextStyleTableRecord
  2
Standard
 70
     0
 40
0.0
 41
1.0
 50
0.0
 71
     0
 42
0.2
  3
txt
  4

  0
ENDTAB
  0
TABLE
  2
VIEW
  5
6
330
0
100
AcDbSymbolTable
 70
     0
  0
ENDTAB
  0
TABLE
  2
UCS
  5
7
330
0
100
AcDbSymbolTable
 70
     0
  0
ENDTAB
  0
TABLE
  2
APPID
  5
9
330
0
100
AcDbSymbolTable
 70
     1
  0
APPID
  5
12
330
9
100
AcDbSymbolTableRecord
100
AcDbRegAppTableRecord
  2
ACAD
 70
     0
  0
ENDTAB
  0
TABLE
  2
DIMSTYLE
  5
A
330
0
100
AcDbSymbolTable
 70
     1
100
AcDbDimStyleTable
  0
DIMSTYLE
105
27
330
A
100
AcDbSymbolTableRecord
100
AcDbDimStyleTableRecord
  2
Standard
 70
     0
340
11
  0
ENDTAB
  0
TABLE
  2
BLOCK_RECORD
  5
1
330
0
100
AcDbSymbolTable
 70
    17
  0
BLOCK_RECORD
  5
1F
330
1
100
AcDbSymbolTableRecord
100
AcDbBlockTableRecord
  2
*Model_Space
340
22
  0
BLOCK_RECORD
  5
1B
330
1
100
AcDbSymbolTableRecord
100
AcDbBlockTableRecord
  2
*Paper_Space
340
1E
  0
BLOCK_RECORD
  5
23
330
1
100
AcDbSymbolTableRecord
100
AcDbBlockTableRecord
  2
*Paper_Space0
340
26
  0
BLOCK_RECORD
  5
3C
330
1
100
AcDbSymbolTableRecord
100
AcDbBlockTableRecord
  2
block 2
340
0
102
{BLKREFS
331
3D
102
}
  0
BLOCK_RECORD
  5
64
330
1
100
AcDbSymbolTableRecord
100
AcDbBlockTableRecord
  2
block 3
340
0
102
{BLKREFS
331
65
102
}
  0
BLOCK_RECORD
  5
88
330
1
100
AcDbSymbolTableRecord
100
AcDbBlockTableRecord
  2
block 4
340
0
102
{BLKREFS
331
89
102
}
  0
BLOCK_RECORD
  5
D0
330
1
100
AcDbSymbolTableRecord
100
AcDbBlockTableRecord
  2
block 5
340
0
102
{BLKREFS
331
D1
102
}
  0
BLOCK_RECORD
  5
D6
330
1
100
AcDbSymbolTableRecord
100
AcDbBlockTableRecord
  2
block 6
340
0
102
{BLKREFS
331
D7
102
}
  0
BLOCK_RECORD
  5
DB
330
1
100
AcDbSymbolTableRecord
100
AcDbBlockTableRecord
  2
block 7
340
0
102
{BLKREFS
331
DC
102
}
  0
BLOCK_RECORD
  5
DF
330
1
100
AcDbSymbolTableRecord
100
AcDbBlockTableRecord
  2
block 8
340
0
102
{BLKREFS
331
E0
102
}
  0
BLOCK_RECORD
  5
E3
330
1
100
AcDbSymbolTableRecord
100
AcDbBlockTableRecord
  2
block 9
340
0
102
{BLKREFS
331
E4
102
}
  0
BLOCK_RECORD
  5
E7
330
1
100
AcDbSymbolTableRecord
100
AcDbBlockTableRecord
  2
block 10
340
0
102
{BLKREFS
331
E8
102
}
  0
BLOCK_RECORD
  5
ED
330
1
100
AcDbSymbolTableRecord
100
AcDbBlockTableRecord
  2
block 11
340
0
102
{BLKREFS
331
EE
102
}
  0
BLOCK_RECORD
  5
F3
330
1
100
AcDbSymbolTableRecord
100
AcDbBlockTableRecord
  2
block 12
340
0
102
{BLKREFS
331
F4
102
}
  0
BLOCK_RECORD
  5
F7
330
1
100
AcDbSymbolTableRecord
100
AcDbBlockTableRecord
  2
block 13
340
0
102
{BLKREFS
331
F8
102
}
  0
BLOCK_RECORD
  5
FD
330
1
100
AcDbSymbolTableRecord
100
AcDbBlockTableRecord
  2
block 14
340
0
102
{BLKREFS
331
FE
102
}
  0
BLOCK_RECORD
  5
103
330
1
100
AcDbSymbolTableRecord
100
AcDbBlockTableRecord
  2
block 15
340
0
102
{BLKREFS
331
104
102
}
  0
BLOCK_RECORD
  5
107
330
1
100
AcDbSymbolTableRecord
100
AcDbBlockTableRecord
  2
block 16
340
0
102
{BLKREFS
331
108
102
}
  0
BLOCK_RECORD
  5
10D
330
1
100
AcDbSymbolTableRecord
100
AcDbBlockTableRecord
  2
block 17
340
0
102
{BLKREFS
331
10E
102
}
  0
ENDTAB
  0
ENDSEC
  0
SECTION
  2
BLOCKS
  0
BLOCK
  5
20
330
1F
100
AcDbEntity
  8
0
100
AcDbBlockBegin
  2
*Model_Space
 70
     0
 71
     0
 10
0.0
 20
0.0
 30
0.0
  3
*Model_Space
  1

  0
ENDBLK
  5
21
330
1F
100
AcDbEntity
  8
0
100
AcDbBlockEnd
  0
BLOCK
  5
1C
330
1B
100
AcDbEntity
 67
     1
  8
0
100
AcDbBlockBegin
  2
*Paper_Space
 70
     0
 71
     0
 10
0.0
 20
0.0
 30
0.0
  3
*Paper_Space
  1

  0
ENDBLK
  5
1D
330
1B
100
AcDbEntity
 67
     1
  8
0
100
AcDbBlockEnd
  0
BLOCK
  5
24
330
23
100
AcDbEntity
  8
0
100
AcDbBlockBegin
  2
*Paper_Space0
 70
     0
 71
     0
 10
0.0
 20
0.0
 30
0.0
  3
*Paper_Space0
  1

  0
ENDBLK
  5
25
330
23
100
AcDbEntity
  8
0
100
AcDbBlockEnd
  0
BLOCK
  5
3E
330
3C
100
AcDbEntity
  8
0
100
AcDbBlockBegin
  2
block 2
 70
     0
 71
     0
 10
0.0
 20
0.0
 30
0.0
  3
block 2
  1

  0
POLYLINE
  5
40
330
3C
100
AcDbEntity
  8
Ebene 9
 62
   250
420
  2301728
370
     9
100
AcDb2dPolyline
 66
     1
 10
0.0
 20
0.0
 30
0.0
  0
VERTEX
  5
41
330
40
100
AcDbEntity
  8
Ebene 9
 62
   250
420
  2301728
370
     9
100
AcDbVertex
100
AcDb2dVertex
 10
94.70039746484197
 20
190.600722478782
 30
0.0
  0
VERTEX
  5
42
330
40
100
AcDbEntity
  8
Ebene 9
 62
   250
420
  2301728
370
     9
100
AcDbVertex
100
AcDb2dVertex
 10
99.70061235074758
 20
190.600722478782
 30
0.0
  0
SEQEND
  5
43
330
40
100
AcDbEntity
  8
Ebene 9
370
     9
  0
POLYLINE
  5
44
330
3C
100
AcDbEntity
  8
Ebene 9
 62
   250
420
  2301728
370
     9
100
AcDb2dPolyline
 66
     1
 10
0.0
 20
0.0
 30
0.0
  0
VERTEX
  5
45
330
44
100
AcDbEntity
  8
Ebene 9
 62
   250
420
  2301728
370
     9
100
AcDbVertex
100
AcDb2dVertex
 10
94.70039746484197
 20
114.4006722290822
 30
0.0
  0
VERTEX
  5
46
330
44
100
AcDbEntity
  8
Ebene 9
 62
   250
420
  2301728
370
     9
100
AcDbVertex
100
AcDb2dVertex
 10
99.70061235074758
 20
114.4006722290822
 30
0.0
  0
SEQEND
  5
47
330
44
100
AcDbEntity
  8
Ebene 9
370
     9
  0
POLYLINE
  5
48
330
3C
100
AcDbEntity
  8
Ebene 9
 62
   250
420
  2301728
370
     9
100
AcDb2dPolyline
 66
     1
 10
0.0
 20
0.0
 30
0.0
  0
VERTEX
  5
49
330
48
100
AcDbEntity
  8
Ebene 9
 62
   250
420
  2301728
370
     9
100
AcDbVertex
100
AcDb2dVertex
 10
205.3006101022287
 20
190.600722478782
 30
0.0
  0
VERTEX
  5
4A
330
48
100
AcDbEntity
  8
Ebene 9
 62
   250
420
  2301728
370
     9
100
AcDbVertex
100
AcDb2dVertex
 10
210.3008249881343
 20
190.600722478782
 30
0.0
  0
SEQEND
  5
4B
330
48
100
AcDbEntity
  8
Ebene 9
370
     9
  0
POLYLINE
  5
4C
330
3C
100
AcDbEntity
  8
Ebene 9
 62
   250
420
  2301728
370
     9
100
AcDb2dPolyline
 66
     1
 10
0.0
 20
0.0
 30
0.0
  0
VERTEX
  5
4D
330
4C
100
AcDbEntity
  8
Ebene 9
 62
   250
420
  2301728
370
     9
100
AcDbVertex
100
AcDb2dVertex
 10
205.3006101022287
 20
114.4006722290822
 30
0.0
  0
VERTEX
  5
4E
330
4C
100
AcDbEntity
  8
Ebene 9
 62
   250
420
  2301728
370
     9
100
AcDbVertex
100
AcDb2dVertex
 10
210.3008249881343
 20
114.4006722290822
 30
0.0
  0
SEQEND
  5
4F
330
4C
100
AcDbEntity
  8
Ebene 9
370
     9
  0
POLYLINE
  5
50
330
3C
100
AcDbEntity
  8
Ebene 9
 62
   250
420
  2301728
370
     9
100
AcDb2dPolyline
 66
     1
 10
0.0
 20
0.0
 30
0.0
  0
VERTEX
  5
51
330
50
100
AcDbEntity
  8
Ebene 9
 62
   250
420
  2301728
370
     9
100
AcDbVertex
100
AcDb2dVertex
 10
203.300730853732
 20
192.6007739821667
 30
0.0
  0
VERTEX
  5
52
330
50
100
AcDbEntity
  8
Ebene 9
 62
   250
420
  2301728
370
     9
100
AcDbVertex
100
AcDb2dVertex
 10
203.300730853732
 20
197.6009888680722
 30
0.0
  0
SEQEND
  5
53
330
50
100
AcDbEntity
  8
Ebene 9
370
     9
  0
POLYLINE
  5
54
330
3C
100
AcDbEntity
  8
Ebene 9
 62
   250
420
  2301728
370
     9
100
AcDb2dPolyline
 66
     1
 10
0.0
 20
0.0
 30
0.0
  0
VERTEX
  5
55
330
54
100
AcDbEntity
  8
Ebene 9
 62
   250
420
  2301728
370
     9
100
AcDbVertex
100
AcDb2dVertex
 10
101.7006638541322
 20
192.6007739821667
 30
0.0
  0
VERTEX
  5
56
330
54
100
AcDbEntity
  8
Ebene 9
 62
   250
420
  2301728
370
     9
100
AcDbVertex
100
AcDb2dVertex
 10
101.7006638541322
 20
197.6009888680722
 30
0.0
  0
SEQEND
  5
57
330
54
100
AcDbEntity
  8
Ebene 9
370
     9
  0
POLYLINE
  5
58
330
3C
100
AcDbEntity
  8
Ebene 9
 62
   250
420
  2301728
370
     9
100
AcDb2dPolyline
 66
     1
 10
0.0
 20
0.0
 30
0.0
  0
VERTEX
  5
59
330
58
100
AcDbEntity
  8
Ebene 9
 62
   250
420
  2301728
370
     9
100
AcDbVertex
100
AcDb2dVertex
 10
203.300730853732
 20
107.400233584904
 30
0.0
  0
VERTEX
  5
5A
330
58
100
AcDbEntity
  8
Ebene 9
 62
   250
420
  2301728
370
     9
100
AcDbVertex
100
AcDb2dVertex
 10
203.300730853732
 20
112.4004484708096
 30
0.0
  0
SEQEND
  5
5B
330
58
100
AcDbEntity
  8
Ebene 9
370
     9
  0
POLYLINE
  5
5C
330
3C
100
AcDbEntity
  8
Ebene 9
 62
   250
420
  2301728
370
     9
100
AcDb2dPolyline
 66
     1
 10
0.0
 20
0.0
 30
0.0
  0
VERTEX
  5
5D
330
5C
100
AcDbEntity
  8
Ebene 9
 62
   250
420
  2301728
370
     9
100
AcDbVertex
100
AcDb2dVertex
 10
101.7006638541322
 20
107.400233584904
 30
0.0
  0
VERTEX
  5
5E
330
5C
100
AcDbEntity
  8
Ebene 9
 62
   250
420
  2301728
370
     9
100
AcDbVertex
100
AcDb2dVertex
 10
101.7006638541322
 20
112.4004484708096
 30
0.0
  0
SEQEND
  5
5F
330
5C
100
AcDbEntity
  8
Ebene 9
370
     9
  0
ENDBLK
  5
3F
330
3C
100
AcDbEntity
  8
0
100
AcDbBlockEnd
  0
BLOCK
  5
66
330
64
100
AcDbEntity
  8
0
100
AcDbBlockBegin
  2
block 3
 70
     0
 71
     0
 10
0.0
 20
0.0
 30
0.0
  3
block 3
  1

  0
SPLINE
  5
68
330
64
100
AcDbEntity
  8
Ebene 2
 62
   250
420
  2301728
370
     5
100
AcDbSpline
210
0.0
220
0.0
230
1.0
 70
     8
 71
     3
 72
    56
 73
    52
 74
     0
 42
0.0000000001
 43
0.0000000001
 40
0.0
 40
0.0
 40
0.0
 40
0.0
 40
1.0
 40
1.0
 40
1.0
 40
2.0
 40
2.0
 40
2.0
 40
3.0
 40
3.0
 40
3.0
 40
4.0
 40
4.0
 40
4.0
 40
5.0
 40
5.0
 40
5.0
 40
6.0
 40
6.0
 40
6.0
 40
7.0
 40
7.0
 40
7.0
 40
8.0
 40
8.0
 40
8.0
 40
9.0
 40
9.0
 40
9.0
 40
10.0
 40
10.0
 40
10.0
 40
11.0
 40
11.0
 40
11.0
 40
12.0
 40
12.0
 40
12.0
 40
13.0
 40
13.0
 40
13.0
 40
14.0
 40
14.0
 40
14.0
 40
15.0
 40
15.0
 40
15.0
 40
16.0
 40
16.0
 40
16.0
 40
17.0
 40
17.0
 40
17.0
 40
17.0
 10
165.1373159301356
 20
126.6242235841061
 30
0.0
 10
165.1021759330044
 20
126.685201814422
 30
0.0
 10
163.5828878217433
 20
125.644093271966
 30
0.0
 10
163.5470588050605
 20
125.7061050316093
 30
0.0
 10
163.5132968470324
 20
125.7643271837188
 30
0.0
 10
165.4894049209992
 20
127.8482668175099
 30
0.0
 10
165.4525423749891
 20
127.9116566162564
 30
0.0
 10
165.4115457116693
 20
127.9829701398462
 30
0.0
 10
163.3045239229
 20
126.5635898635659
 30
0.0
 10
163.2576705933917
 20
126.644549660878
 30
0.0
 10
163.228387262449
 20
126.6955371076959
 30
0.0
 10
165.0973527961432
 20
128.5793165617493
 30
0.0
 10
165.0704810336311
 20
128.6261698912576
 30
0.0
 10
165.0229386845712
 20
128.7085077276729
 30
0.0
 10
163.3920294059522
 20
127.5740370359761
 30
0.0
 10
163.3562003892694
 20
127.6363933053952
 30
0.0
 10
163.3107250988643
 20
127.7149415342767
 30
0.0
 10
165.5975809905993
 20
129.8016372462741
 30
0.0
 10
165.5610629543649
 20
129.8650270450206
 30
0.0
 10
165.516965703063
 20
129.9411637054716
 30
0.0
 10
162.9448557169688
 20
128.2723583515149
 30
0.0
 10
162.9090267002859
 20
128.3340256013825
 30
0.0
 10
162.8587282730197
 20
128.4215310844347
 30
0.0
 10
165.2399798433228
 20
130.7569628545569
 30
0.0
 10
165.1989831800031
 20
130.8279318683709
 30
0.0
 10
165.1548859287012
 20
130.9047575483735
 30
0.0
 10
163.3052129424516
 20
129.6252482410665
 30
0.0
 10
163.2576705933917
 20
129.707241567706
 30
0.0
 10
163.2173629496235
 20
129.7775215619684
 30
0.0
 10
165.6564921622604
 20
131.9792835390817
 30
0.0
 10
165.6203186358018
 20
132.0419843182766
 30
0.0
 10
165.5796664822579
 20
132.112264312539
 30
0.0
 10
163.5980462518783
 20
130.7710877553646
 30
0.0
 10
163.5532599810248
 20
130.8482579451429
 30
0.0
 10
163.5146748861356
 20
130.9154373514232
 30
0.0
 10
165.1080325991929
 20
132.9153165999199
 30
0.0
 10
165.0708255434069
 20
132.9797399279938
 30
0.0
 10
165.0394751538095
 20
133.0345169823454
 30
0.0
 10
163.1233117808312
 20
131.7612088510027
 30
0.0
 10
163.0826596272872
 20
131.8318333550409
 30
0.0
 10
163.0444190421738
 20
131.897634722218
 30
0.0
 10
165.3323084632362
 20
134.3970531456192
 30
0.0
 10
165.2878667021585
 20
134.4738788256218
 30
0.0
 10
165.2506596463725
 20
134.5383021536957
 30
0.0
 10
163.4571417535777
 20
133.3449202903377
 30
0.0
 10
163.4257913639802
 20
133.3990083251377
 30
0.0
 10
163.3816941126783
 20
133.4758340051403
 30
0.0
 10
165.5631300130196
 20
135.5222220733695
 30
0.0
 10
165.5276455061126
 20
135.5832003036854
 30
0.0
 10
165.4938835480846
 20
135.6417669655708
 30
0.0
 10
163.8044076075802
 20
134.4890372557568
 30
0.0
 10
163.7613438856057
 20
134.5634513673288
 30
0.0
  0
SPLINE
  5
69
330
64
100
AcDbEntity
  8
Ebene 2
 62
   250
420
  2301728
370
     5
100
AcDbSpline
210
0.0
220
0.0
230
1.0
 70
     8
 71
     3
 72
    38
 73
    34
 74
     0
 42
0.0000000001
 43
0.0000000001
 40
0.0
 40
0.0
 40
0.0
 40
0.0
 40
1.0
 40
1.0
 40
1.0
 40
2.0
 40
2.0
 40
2.0
 40
3.0
 40
3.0
 40
3.0
 40
4.0
 40
4.0
 40
4.0
 40
5.0
 40
5.0
 40
5.0
 40
6.0
 40
6.0
 40
6.0
 40
7.0
 40
7.0
 40
7.0
 40
8.0
 40
8.0
 40
8.0
 40
9.0
 40
9.0
 40
9.0
 40
10.0
 40
10.0
 40
10.0
 40
11.0
 40
11.0
 40
11.0
 40
11.0
 10
163.5987352714299
 20
141.5511431498025
 30
0.0
 10
163.6118266429101
 20
141.5287500143757
 30
0.0
 10
164.3487330533382
 20
142.0079631125082
 30
0.0
 10
164.359068346612
 20
141.9900486041668
 30
0.0
 10
164.3797389331598
 20
141.954219587484
 30
0.0
 10
164.0266164129687
 20
140.5003883336242
 30
0.0
 10
164.0428083724312
 20
140.4728275515605
 30
0.0
 10
164.0782928793382
 20
140.4115048114687
 30
0.0
 10
165.6137729500617
 20
141.4798296262126
 30
0.0
 10
165.657181181812
 20
141.4047264950891
 30
0.0
 10
165.6950772571496
 20
141.3392696376878
 30
0.0
 10
163.7330940839904
 20
139.0434564917822
 30
0.0
 10
163.7703011397764
 20
138.9790331637083
 30
0.0
 10
163.8164654497331
 20
138.8987623859478
 30
0.0
 10
165.9875660568005
 20
140.3643069721847
 30
0.0
 10
166.0330413472056
 20
140.2854142335273
 30
0.0
 10
166.0798946767139
 20
140.2041099264395
 30
0.0
 10
163.4946933191394
 20
137.7546454205287
 30
0.0
 10
163.5374125313382
 20
137.6809203285083
 30
0.0
 10
163.5815097826401
 20
137.6047836680574
 30
0.0
 10
165.7550219581381
 20
139.0844531551019
 30
0.0
 10
165.8084209733865
 20
138.9921245351885
 30
0.0
 10
165.8501066562579
 20
138.9201219920471
 30
0.0
 10
162.9290082672821
 20
136.3318200464905
 30
0.0
 10
162.9789621847726
 20
136.2456926025415
 30
0.0
 10
163.0347727684515
 20
136.1488853555427
 30
0.0
 10
165.0163929988311
 20
137.5541407310153
 30
0.0
 10
165.0735816216133
 20
137.454921915586
 30
0.0
 10
165.11974593157
 20
137.3749956476013
 30
0.0
 10
162.0966726489586
 20
134.8934917325415
 30
0.0
 10
162.1366357829509
 20
134.8242452676065
 30
0.0
 10
162.1834891124592
 20
134.7425964507428
 30
0.0
 10
165.5841451093432
 20
136.9402243105465
 30
0.0
 10
165.6382331441432
 20
136.8461731417542
 30
0.0
  0
SPLINE
  5
6A
330
64
100
AcDbEntity
  8
Ebene 2
 62
   250
420
  2301728
370
     5
100
AcDbSpline
210
0.0
220
0.0
230
1.0
 70
     8
 71
     3
 72
    68
 73
    64
 74
     0
 42
0.0000000001
 43
0.0000000001
 40
0.0
 40
0.0
 40
0.0
 40
0.0
 40
1.0
 40
1.0
 40
1.0
 40
2.0
 40
2.0
 40
2.0
 40
3.0
 40
3.0
 40
3.0
 40
4.0
 40
4.0
 40
4.0
 40
5.0
 40
5.0
 40
5.0
 40
6.0
 40
6.0
 40
6.0
 40
7.0
 40
7.0
 40
7.0
 40
8.0
 40
8.0
 40
8.0
 40
9.0
 40
9.0
 40
9.0
 40
10.0
 40
10.0
 40
10.0
 40
11.0
 40
11.0
 40
11.0
 40
12.0
 40
12.0
 40
12.0
 40
13.0
 40
13.0
 40
13.0
 40
14.0
 40
14.0
 40
14.0
 40
15.0
 40
15.0
 40
15.0
 40
16.0
 40
16.0
 40
16.0
 40
17.0
 40
17.0
 40
17.0
 40
18.0
 40
18.0
 40
18.0
 40
19.0
 40
19.0
 40
19.0
 40
20.0
 40
20.0
 40
20.0
 40
21.0
 40
21.0
 40
21.0
 40
21.0
 10
159.1497360267982
 20
142.7104185453566
 30
0.0
 10
159.1593823005205
 20
142.6938820761184
 30
0.0
 10
159.9424530209051
 20
143.1954883096776
 30
0.0
 10
159.9541663532822
 20
143.1751622329056
 30
0.0
 10
159.9751814496058
 20
143.1382996868954
 30
0.0
 10
158.8927317340542
 20
141.379577281456
 30
0.0
 10
158.9161583988084
 20
141.3392696376878
 30
0.0
 10
158.9581885914555
 20
141.2658890554432
 30
0.0
 10
161.320147614314
 20
142.8130824585438
 30
0.0
 10
161.3573546701
 20
142.7486591304699
 30
0.0
 10
161.398006823644
 20
142.6787236459833
 30
0.0
 10
159.0677427001587
 20
140.2282256107452
 30
0.0
 10
159.1132179905638
 20
140.1489883623121
 30
0.0
 10
159.1624828885026
 20
140.0638944476904
 30
0.0
 10
161.4417595651701
 20
141.5883502055885
 30
0.0
 10
161.4827562284898
 20
141.5173811917744
 30
0.0
 10
161.5175517158452
 20
141.4570919810101
 30
0.0
 10
159.4804654115625
 20
139.3831431307172
 30
0.0
 10
159.5214620748822
 20
139.3121741169032
 30
0.0
 10
159.5562575622376
 20
139.2522294159146
 30
0.0
 10
161.3773362370962
 20
140.4755836297668
 30
0.0
 10
161.4169548613127
 20
140.4066816746076
 30
0.0
 10
161.4496832900134
 20
140.3498375616012
 30
0.0
 10
159.2830613100313
 20
138.0175063794612
 30
0.0
 10
159.3250915026784
 20
137.9448148167682
 30
0.0
 10
159.3698777735319
 20
137.867300117214
 30
0.0
 10
161.2068038980771
 20
139.1089133491834
 30
0.0
 10
161.2405658561051
 20
139.0506911970739
 30
0.0
 10
161.2808734998733
 20
138.9804112028115
 30
0.0
 10
158.751138216202
 20
136.5381814021924
 30
0.0
 10
158.7880007622122
 20
136.4741025838943
 30
0.0
 10
158.8210737006886
 20
136.4165694513364
 30
0.0
 10
161.0769237126019
 20
137.8786689398153
 30
0.0
 10
161.1127527292847
 20
137.8163126703962
 30
0.0
 10
161.1547829219319
 20
137.7436211077032
 30
0.0
 10
159.342661501244
 20
135.5976697142689
 30
0.0
 10
159.3750454201688
 20
135.5422036403657
 30
0.0
 10
159.4139750248338
 20
135.4743352145339
 30
0.0
 10
161.2353982094682
 20
136.7052686434536
 30
0.0
 10
161.2739833043573
 20
136.6384337469491
 30
0.0
 10
161.3098123210401
 20
136.5764219873058
 30
0.0
 10
159.3264695417816
 20
134.4308151036473
 30
0.0
 10
159.3702222833077
 20
134.3553674627479
 30
0.0
 10
159.4084628684211
 20
134.2888770760192
 30
0.0
 10
161.193368016821
 20
135.4770912927402
 30
0.0
 10
161.2229958575395
 20
135.4254148263708
 30
0.0
 10
161.2450444831905
 20
135.3871742412574
 30
0.0
 10
160.2363198596593
 20
133.5464585091785
 30
0.0
 10
160.2625026026198
 20
133.5013277285492
 30
0.0
 10
160.2969535801994
 20
133.4417275373364
 30
0.0
 10
161.2726052652542
 20
134.1493506168218
 30
0.0
 10
161.3005105570936
 20
134.1007747384345
 30
0.0
 10
161.3232482022962
 20
134.0615006239938
 30
0.0
 10
160.5549914022707
 20
132.7027540682537
 30
0.0
 10
160.5760064985943
 20
132.6665805417951
 30
0.0
 10
160.6263049258606
 20
132.5797640782944
 30
0.0
 10
162.9138498371471
 20
134.1204117956549
 30
0.0
 10
162.9593251275522
 20
134.0422080765492
 30
0.0
 10
162.9851633607369
 20
133.9974218056957
 30
0.0
 10
161.3752691784414
 20
132.2597144965798
 30
0.0
 10
161.4055860387115
 20
132.207004500883
 30
0.0
 10
161.4172993710885
 20
132.1870229338868
 30
0.0
 10
162.1145871573
 20
132.6366081913008
 30
0.0
 10
162.1231999016949
 20
132.62110525139
 30
0.0
  0
SPLINE
  5
6B
330
64
100
AcDbEntity
  8
Ebene 2
 62
   250
420
  2301728
370
     5
100
AcDbSpline
210
0.0
220
0.0
230
1.0
 70
     8
 71
     3
 72
    38
 73
    34
 74
     0
 42
0.0000000001
 43
0.0000000001
 40
0.0
 40
0.0
 40
0.0
 40
0.0
 40
1.0
 40
1.0
 40
1.0
 40
2.0
 40
2.0
 40
2.0
 40
3.0
 40
3.0
 40
3.0
 40
4.0
 40
4.0
 40
4.0
 40
5.0
 40
5.0
 40
5.0
 40
6.0
 40
6.0
 40
6.0
 40
7.0
 40
7.0
 40
7.0
 40
8.0
 40
8.0
 40
8.0
 40
9.0
 40
9.0
 40
9.0
 40
10.0
 40
10.0
 40
10.0
 40
11.0
 40
11.0
 40
11.0
 40
11.0
 10
174.9796157148563
 20
137.17104586033
 30
0.0
 10
174.9437866981735
 20
137.2330576199733
 30
0.0
 10
172.7933566776538
 20
135.8367594986714
 30
0.0
 10
172.7623507978322
 20
135.8908475334714
 30
0.0
 10
172.7372015841991
 20
135.9342557652217
 30
0.0
 10
174.4277110540309
 20
137.7198499331733
 30
0.0
 10
174.3984277230882
 20
137.7704928702153
 30
0.0
 10
174.3588090988716
 20
137.8393948253745
 30
0.0
 10
173.3810903551621
 20
137.0935311607758
 30
0.0
 10
173.3425052602729
 20
137.1607105670561
 30
0.0
 10
173.3097768315723
 20
137.2168656605109
 30
0.0
 10
174.9555000305506
 20
139.1419862876598
 30
0.0
 10
174.9286282680385
 20
139.1888396171681
 30
0.0
 10
174.8907321927009
 20
139.2542964745694
 30
0.0
 10
173.5967534748105
 20
138.3485802740013
 30
0.0
 10
173.5657475949888
 20
138.4023237990255
 30
0.0
 10
173.5402538715799
 20
138.4467655601032
 30
0.0
 10
174.7574069094678
 20
140.1886069865286
 30
0.0
 10
174.7291571078525
 20
140.2378718844675
 30
0.0
 10
174.6981512280309
 20
140.2916154094917
 30
0.0
 10
173.4227760380334
 20
139.4107039127809
 30
0.0
 10
173.391425648436
 20
139.4654809671325
 30
0.0
 10
173.3721331009914
 20
139.4985539056089
 30
0.0
 10
173.7486822859366
 20
140.9634094722942
 30
0.0
 10
173.729389738492
 20
140.9968269205464
 30
0.0
 10
173.7014844466525
 20
141.0454027989337
 30
0.0
 10
173.0892905750627
 20
140.5751469549719
 30
0.0
 10
173.0665529298602
 20
140.6140765596369
 30
0.0
 10
173.0544950877073
 20
140.6350916559605
 30
0.0
 10
172.4901880749532
 20
141.5807709905209
 30
0.0
 10
172.4750296448182
 20
141.6072982432572
 30
0.0
 10
172.4526365093914
 20
141.6458833381464
 30
0.0
 10
171.7295104899953
 20
141.112582205214
 30
0.0
 10
171.7016051981558
 20
141.1608135738254
 30
0.0
  0
SPLINE
  5
6C
330
64
100
AcDbEntity
  8
Ebene 2
 62
   250
420
  2301728
370
     5
100
AcDbSpline
210
0.0
220
0.0
230
1.0
 70
     8
 71
     3
 72
    56
 73
    52
 74
     0
 42
0.0000000001
 43
0.0000000001
 40
0.0
 40
0.0
 40
0.0
 40
0.0
 40
1.0
 40
1.0
 40
1.0
 40
2.0
 40
2.0
 40
2.0
 40
3.0
 40
3.0
 40
3.0
 40
4.0
 40
4.0
 40
4.0
 40
5.0
 40
5.0
 40
5.0
 40
6.0
 40
6.0
 40
6.0
 40
7.0
 40
7.0
 40
7.0
 40
8.0
 40
8.0
 40
8.0
 40
9.0
 40
9.0
 40
9.0
 40
10.0
 40
10.0
 40
10.0
 40
11.0
 40
11.0
 40
11.0
 40
12.0
 40
12.0
 40
12.0
 40
13.0
 40
13.0
 40
13.0
 40
14.0
 40
14.0
 40
14.0
 40
15.0
 40
15.0
 40
15.0
 40
16.0
 40
16.0
 40
16.0
 40
17.0
 40
17.0
 40
17.0
 40
17.0
 10
170.1592349319163
 20
142.0282891892802
 30
0.0
 10
170.171637283845
 20
142.006585073405
 30
0.0
 10
170.3311453100386
 20
142.1616144725133
 30
0.0
 10
170.3456147206221
 20
142.1357762393286
 30
0.0
 10
170.3776541297711
 20
142.0806546752012
 30
0.0
 10
168.2782115560692
 20
139.7855305488471
 30
0.0
 10
168.3126625336489
 20
139.7255858478586
 30
0.0
 10
168.3791529203775
 20
139.6105195827427
 30
0.0
 10
172.2986406396105
 20
142.1612699627375
 30
0.0
 10
172.3568627917201
 20
142.060673108205
 30
0.0
 10
172.4236976882245
 20
141.9449178235375
 30
0.0
 10
168.0484235356132
 20
138.4422869330178
 30
0.0
 10
168.123182156961
 20
138.3124067475427
 30
0.0
 10
168.1690019571419
 20
138.2331694991096
 30
0.0
 10
170.2436398269864
 20
139.6239554639987
 30
0.0
 10
170.281535902324
 20
139.5584986065974
 30
0.0
 10
170.3142643310246
 20
139.501654493591
 30
0.0
 10
168.4504664439673
 20
137.5172781850051
 30
0.0
 10
168.4890515388565
 20
137.4504432885007
 30
0.0
 10
168.520401928454
 20
137.3960107439249
 30
0.0
 10
170.0961896429456
 20
138.4626130097898
 30
0.0
 10
170.13270767918
 20
138.3995677208191
 30
0.0
 10
170.1606129710195
 20
138.3509918424319
 30
0.0
 10
168.4301403671953
 20
136.2456926025415
 30
0.0
 10
168.466313893654
 20
136.1833363331224
 30
0.0
 10
168.5059325178705
 20
136.1144343779631
 30
0.0
 10
170.0417570983698
 20
137.1624331159351
 30
0.0
 10
170.0717294488641
 20
137.110067630014
 30
0.0
 10
170.104113367789
 20
137.0542570463351
 30
0.0
 10
168.2399709709559
 20
134.9599821192702
 30
0.0
 10
168.2692543018985
 20
134.9093391822281
 30
0.0
 10
168.2981931230654
 20
134.8593852647377
 30
0.0
 10
170.2026431636666
 20
136.0972088891733
 30
0.0
 10
170.2336490434883
 20
136.0434653641491
 30
0.0
 10
170.2608653157762
 20
135.996267524865
 30
0.0
 10
169.4695263607724
 20
134.3791386372778
 30
0.0
 10
169.4901969473202
 20
134.3429651108192
 30
0.0
 10
169.522580866245
 20
134.2871545271402
 30
0.0
 10
170.9099217333762
 20
135.2366234692345
 30
0.0
 10
170.9419611425252
 20
135.1811573953313
 30
0.0
 10
170.9615981997456
 20
135.1470509275275
 30
0.0
 10
170.3201209972131
 20
133.6939086932192
 30
0.0
 10
170.3442366815189
 20
133.6522230103479
 30
0.0
 10
170.4262300081584
 20
133.5099404729441
 30
0.0
 10
174.8683390572742
 20
136.4117463144752
 30
0.0
 10
174.9320733657964
 20
136.3011586764447
 30
0.0
 10
174.9665243433761
 20
136.2412139754561
 30
0.0
 10
172.7651068760385
 20
133.7745239807556
 30
0.0
 10
172.8054145198067
 20
133.7042439864931
 30
0.0
 10
172.833664321422
 20
133.6553235983301
 30
0.0
 10
173.3755781987494
 20
134.0859608180753
 30
0.0
 10
173.3983158439519
 20
134.0466867036345
 30
0.0
  0
SPLINE
  5
6D
330
64
100
AcDbEntity
  8
Ebene 2
 62
   250
420
  2301728
370
     5
100
AcDbSpline
210
0.0
220
0.0
230
1.0
 70
     8
 71
     3
 72
    26
 73
    22
 74
     0
 42
0.0000000001
 43
0.0000000001
 40
0.0
 40
0.0
 40
0.0
 40
0.0
 40
1.0
 40
1.0
 40
1.0
 40
2.0
 40
2.0
 40
2.0
 40
3.0
 40
3.0
 40
3.0
 40
4.0
 40
4.0
 40
4.0
 40
5.0
 40
5.0
 40
5.0
 40
6.0
 40
6.0
 40
6.0
 40
7.0
 40
7.0
 40
7.0
 40
7.0
 10
186.2140795035694
 20
139.0072829653236
 30
0.0
 10
186.2220032284127
 20
138.9938470840675
 30
0.0
 10
186.7222314228687
 20
139.3145856853337
 30
0.0
 10
186.7280880890573
 20
139.3039058822841
 30
0.0
 10
186.7553043613452
 20
139.2570525527758
 30
0.0
 10
185.8120365952153
 20
137.7653252235784
 30
0.0
 10
185.8375303186242
 20
137.7208834625007
 30
0.0
 10
185.8633685518089
 20
137.676441701423
 30
0.0
 10
186.8335080804509
 20
138.3602936063783
 30
0.0
 10
186.8614133722904
 20
138.3120622377669
 30
0.0
 10
186.8869070956993
 20
138.267964986465
 30
0.0
 10
185.744857188935
 20
136.7938076558332
 30
0.0
 10
185.7734515003261
 20
136.7441982481185
 30
0.0
 10
185.7982562041834
 20
136.7018235456956
 30
0.0
 10
186.7074175025095
 20
137.3381331015911
 30
0.0
 10
186.7311886770394
 20
137.2971364382714
 30
0.0
 10
186.7594384786547
 20
137.2482160501083
 30
0.0
 10
185.1547119429962
 20
135.1212126943428
 30
0.0
 10
185.1895074303516
 20
135.0609234835784
 30
0.0
 10
185.2139676244331
 20
135.0188932909313
 30
0.0
 10
186.5613453575719
 20
135.908417532037
 30
0.0
 10
186.5851165321019
 20
135.8667318491657
 30
0.0
  0
SPLINE
  5
6E
330
64
100
AcDbEntity
  8
Ebene 2
 62
   250
420
  2301728
370
     5
100
AcDbSpline
210
0.0
220
0.0
230
1.0
 70
     8
 71
     3
 72
    32
 73
    28
 74
     0
 42
0.0000000001
 43
0.0000000001
 40
0.0
 40
0.0
 40
0.0
 40
0.0
 40
1.0
 40
1.0
 40
1.0
 40
2.0
 40
2.0
 40
2.0
 40
3.0
 40
3.0
 40
3.0
 40
4.0
 40
4.0
 40
4.0
 40
5.0
 40
5.0
 40
5.0
 40
6.0
 40
6.0
 40
6.0
 40
7.0
 40
7.0
 40
7.0
 40
8.0
 40
8.0
 40
8.0
 40
9.0
 40
9.0
 40
9.0
 40
9.0
 10
181.6806753638676
 20
135.7998969526612
 30
0.0
 10
181.7216720271873
 20
135.7289279388472
 30
0.0
 10
183.2819568017682
 20
136.7982862829185
 30
0.0
 10
183.3139962109173
 20
136.7428202090153
 30
0.0
 10
183.3460356200663
 20
136.6873541351121
 30
0.0
 10
181.42642714933
 20
134.7749803696676
 30
0.0
 10
181.4663902833224
 20
134.7053893949568
 30
0.0
 10
181.4946400849377
 20
134.6568135165695
 30
0.0
 10
183.0184068232841
 20
135.6782850018052
 30
0.0
 10
183.0518242715364
 20
135.6204073594714
 30
0.0
 10
183.0859307393402
 20
135.5611516780345
 30
0.0
 10
181.5418379242217
 20
133.4479287133008
 30
0.0
 10
181.5711212551644
 20
133.3969412664829
 30
0.0
 10
181.6028161545377
 20
133.3418197023556
 30
0.0
 10
182.9364134966446
 20
134.2416792367352
 30
0.0
 10
182.9608736907262
 20
134.1993045343122
 30
0.0
 10
182.9794772186192
 20
134.1669206153874
 30
0.0
 10
182.8595878166421
 20
132.9301305202791
 30
0.0
 10
182.8788803640867
 20
132.8967130720269
 30
0.0
 10
182.9415811432816
 20
132.7885370024269
 30
0.0
 10
185.9849805026649
 20
134.8218336991759
 30
0.0
 10
186.0418246156713
 20
134.7229593935224
 30
0.0
 10
186.0783426519057
 20
134.6599141045517
 30
0.0
 10
183.6319787339771
 20
132.4547070296804
 30
0.0
 10
183.6726308875211
 20
132.384427035418
 30
0.0
 10
183.7057038259975
 20
132.32689390286
 30
0.0
 10
184.7413002120408
 20
133.0731020772346
 30
0.0
 10
184.7723060918624
 20
133.0193585522103
 30
0.0
  0
SPLINE
  5
6F
330
64
100
AcDbEntity
  8
Ebene 2
 62
   250
420
  2301728
370
     5
100
AcDbSpline
210
0.0
220
0.0
230
1.0
 70
     8
 71
     3
 72
    32
 73
    28
 74
     0
 42
0.0000000001
 43
0.0000000001
 40
0.0
 40
0.0
 40
0.0
 40
0.0
 40
1.0
 40
1.0
 40
1.0
 40
2.0
 40
2.0
 40
2.0
 40
3.0
 40
3.0
 40
3.0
 40
4.0
 40
4.0
 40
4.0
 40
5.0
 40
5.0
 40
5.0
 40
6.0
 40
6.0
 40
6.0
 40
7.0
 40
7.0
 40
7.0
 40
8.0
 40
8.0
 40
8.0
 40
9.0
 40
9.0
 40
9.0
 40
9.0
 10
181.3709610754268
 20
140.7332769420624
 30
0.0
 10
181.3799183295976
 20
140.7177740021515
 30
0.0
 10
181.8884147586727
 20
141.0481588771401
 30
0.0
 10
181.8953049541886
 20
141.0361010349872
 30
0.0
 10
181.916664560288
 20
140.999238488977
 30
0.0
 10
181.5118655737275
 20
139.5178464530535
 30
0.0
 10
181.5280575331899
 20
139.4892521416624
 30
0.0
 10
181.5631975303211
 20
139.4286184211223
 30
0.0
 10
183.0842081904612
 20
140.4876414719197
 30
0.0
 10
183.1276164222115
 20
140.4128828505719
 30
0.0
 10
183.1682685757555
 20
140.3426028563095
 30
0.0
 10
180.9875216949657
 20
137.9337905039427
 30
0.0
 10
181.0278293387339
 20
137.8641995292319
 30
0.0
 10
181.0839844321886
 20
137.7673922822331
 30
0.0
 10
183.8438522460918
 20
139.6170652684828
 30
0.0
 10
183.8989738102191
 20
139.521980570363
 30
0.0
 10
183.9571959623287
 20
139.420694696279
 30
0.0
 10
180.5706648662523
 20
136.5588519887402
 30
0.0
 10
180.6237193717249
 20
136.4668678786026
 30
0.0
 10
180.6767738771976
 20
136.374883768465
 30
0.0
 10
183.4945193334344
 20
138.2741661624293
 30
0.0
 10
183.5592871712841
 20
138.1618559755198
 30
0.0
 10
183.6106191278778
 20
138.0729724533643
 30
0.0
 10
179.8420266904434
 20
135.0450760338918
 30
0.0
 10
179.903693940311
 20
134.9386225131708
 30
0.0
 10
179.9725958954702
 20
134.8194221307453
 30
0.0
 10
182.7155827303593
 20
136.7252502104497
 30
0.0
 10
182.7862072343975
 20
136.6029492400421
 30
0.0
  0
SPLINE
  5
70
330
64
100
AcDbEntity
  8
Ebene 2
 62
   250
420
  2301728
370
     5
100
AcDbSpline
210
0.0
220
0.0
230
1.0
 70
     8
 71
     3
 72
    62
 73
    58
 74
     0
 42
0.0000000001
 43
0.0000000001
 40
0.0
 40
0.0
 40
0.0
 40
0.0
 40
1.0
 40
1.0
 40
1.0
 40
2.0
 40
2.0
 40
2.0
 40
3.0
 40
3.0
 40
3.0
 40
4.0
 40
4.0
 40
4.0
 40
5.0
 40
5.0
 40
5.0
 40
6.0
 40
6.0
 40
6.0
 40
7.0
 40
7.0
 40
7.0
 40
8.0
 40
8.0
 40
8.0
 40
9.0
 40
9.0
 40
9.0
 40
10.0
 40
10.0
 40
10.0
 40
11.0
 40
11.0
 40
11.0
 40
12.0
 40
12.0
 40
12.0
 40
13.0
 40
13.0
 40
13.0
 40
14.0
 40
14.0
 40
14.0
 40
15.0
 40
15.0
 40
15.0
 40
16.0
 40
16.0
 40
16.0
 40
17.0
 40
17.0
 40
17.0
 40
18.0
 40
18.0
 40
18.0
 40
19.0
 40
19.0
 40
19.0
 40
19.0
 10
177.1365914211161
 20
141.9287258640751
 30
0.0
 10
177.1472712241658
 20
141.9104668459579
 30
0.0
 10
177.1593290663187
 20
141.971100566498
 30
0.0
 10
177.1720759280231
 20
141.9490519408471
 30
0.0
 10
177.1910239656919
 20
141.9166680219222
 30
0.0
 10
176.3669565819875
 20
140.2954050170254
 30
0.0
 10
176.3876271685353
 20
140.2595760003426
 30
0.0
 10
176.4296573611824
 20
140.1868844376496
 30
0.0
 10
178.7668116801836
 20
141.7185749008394
 30
0.0
 10
178.8036742261938
 20
141.6544960825413
 30
0.0
 10
178.8446708895135
 20
141.5835270687273
 30
0.0
 10
176.4782332395696
 20
139.114770015372
 30
0.0
 10
176.5243975495264
 20
139.0348437473872
 30
0.0
 10
176.5736624474652
 20
138.9497498327656
 30
0.0
 10
178.8474269677199
 20
140.4700714733541
 30
0.0
 10
178.8880791212639
 20
140.3997914790917
 30
0.0
 10
178.9239081379467
 20
140.3381242292241
 30
0.0
 10
176.8303222304334
 20
138.2348920479886
 30
0.0
 10
176.8720079133047
 20
138.1628895048472
 30
0.0
 10
176.9071479104359
 20
138.1019112745312
 30
0.0
 10
178.7630220726498
 20
139.3476586238102
 30
0.0
 10
178.803329716418
 20
139.2780676490993
 30
0.0
 10
178.8374361842218
 20
139.2191564774382
 30
0.0
 10
176.5657387226219
 20
136.8323927507223
 30
0.0
 10
176.609491464148
 20
136.756945109823
 30
0.0
 10
176.6549667545531
 20
136.6780523711656
 30
0.0
 10
178.5511485605352
 20
137.9575616784726
 30
0.0
 10
178.5855995381148
 20
137.8979614872599
 30
0.0
 10
178.627629730762
 20
137.8256144343427
 30
0.0
 10
175.9876513188359
 20
135.3255069913899
 30
0.0
 10
176.0255473941735
 20
135.2597056242128
 30
0.0
 10
176.0593093522015
 20
135.2011389623275
 30
0.0
 10
178.3616681838473
 20
136.6925217817491
 30
0.0
 10
178.3981862200817
 20
136.6294764927784
 30
0.0
 10
178.4412499420562
 20
136.5547178714306
 30
0.0
 10
176.5547144097964
 20
134.3705258928829
 30
0.0
 10
176.5877873482728
 20
134.3133372701008
 30
0.0
 10
176.6270614627136
 20
134.2454688442689
 30
0.0
 10
178.446762098469
 20
135.475713253637
 30
0.0
 10
178.4853471933581
 20
135.4088783571326
 30
0.0
 10
178.5197981709377
 20
135.348933656144
 30
0.0
 10
176.6473875394856
 20
133.2605153952677
 30
0.0
 10
176.6894177321327
 20
133.1878238325747
 30
0.0
 10
176.7255912585913
 20
133.1251230533798
 30
0.0
 10
178.3802717117403
 20
134.2292768848065
 30
0.0
 10
178.4085215133556
 20
134.1803564966434
 30
0.0
 10
178.4271250412486
 20
134.1483170874944
 30
0.0
 10
177.7925380342321
 20
132.5060389862741
 30
0.0
 10
177.814586659883
 20
132.4681429109365
 30
0.0
 10
177.865229596925
 20
132.3806374278842
 30
0.0
 10
179.9243645268587
 20
133.7810696664957
 30
0.0
 10
179.9653611901785
 20
133.7101006526817
 30
0.0
 10
180.0001566775339
 20
133.6501559516931
 30
0.0
 10
178.3947411223238
 20
131.8607721762078
 30
0.0
 10
178.4267805314728
 20
131.8056506120805
 30
0.0
 10
178.4546858233123
 20
131.757419243469
 30
0.0
 10
179.508196717697
 20
132.4884689877084
 30
0.0
 10
179.5336904411059
 20
132.4447162461823
 30
0.0
  0
SPLINE
  5
71
330
64
100
AcDbEntity
  8
Ebene 2
 62
   250
420
  2301728
370
     5
100
AcDbSpline
210
0.0
220
0.0
230
1.0
 70
     8
 71
     3
 72
    92
 73
    88
 74
     0
 42
0.0000000001
 43
0.0000000001
 40
0.0
 40
0.0
 40
0.0
 40
0.0
 40
1.0
 40
1.0
 40
1.0
 40
2.0
 40
2.0
 40
2.0
 40
3.0
 40
3.0
 40
3.0
 40
4.0
 40
4.0
 40
4.0
 40
5.0
 40
5.0
 40
5.0
 40
6.0
 40
6.0
 40
6.0
 40
7.0
 40
7.0
 40
7.0
 40
8.0
 40
8.0
 40
8.0
 40
9.0
 40
9.0
 40
9.0
 40
10.0
 40
10.0
 40
10.0
 40
11.0
 40
11.0
 40
11.0
 40
12.0
 40
12.0
 40
12.0
 40
13.0
 40
13.0
 40
13.0
 40
14.0
 40
14.0
 40
14.0
 40
15.0
 40
15.0
 40
15.0
 40
16.0
 40
16.0
 40
16.0
 40
17.0
 40
17.0
 40
17.0
 40
18.0
 40
18.0
 40
18.0
 40
19.0
 40
19.0
 40
19.0
 40
20.0
 40
20.0
 40
20.0
 40
21.0
 40
21.0
 40
21.0
 40
22.0
 40
22.0
 40
22.0
 40
23.0
 40
23.0
 40
23.0
 40
24.0
 40
24.0
 40
24.0
 40
25.0
 40
25.0
 40
25.0
 40
26.0
 40
26.0
 40
26.0
 40
27.0
 40
27.0
 40
27.0
 40
28.0
 40
28.0
 40
28.0
 40
29.0
 40
29.0
 40
29.0
 40
29.0
 10
148.8092751062761
 20
132.8977466013543
 30
0.0
 10
148.7496749150634
 20
133.0007550243174
 30
0.0
 10
143.8278360031514
 20
129.8615819472627
 30
0.0
 10
143.7584172833285
 20
129.9818158590155
 30
0.0
 10
143.6788355251196
 20
130.119619769334
 30
0.0
 10
148.2141344685883
 20
133.5326781181466
 30
0.0
 10
148.1366197690341
 20
133.6666924209314
 30
0.0
 10
148.0051892895679
 20
133.8944133827326
 30
0.0
 10
140.1903295354076
 20
128.80462595512
 30
0.0
 10
140.0714736627579
 20
129.0102982912703
 30
0.0
 10
139.9591634758484
 20
129.2049463145952
 30
0.0
 10
147.367846204345
 20
134.0900949353848
 30
0.0
 10
147.2627707227271
 20
134.2719960970052
 30
0.0
 10
147.0910325994928
 20
134.5696525432931
 30
0.0
 10
136.6494580597746
 20
127.8382760340118
 30
0.0
 10
136.516821796093
 20
128.0680640544678
 30
0.0
 10
136.3876306301695
 20
128.2916508989595
 30
0.0
 10
145.5894867416852
 20
134.1958594365543
 30
0.0
 10
145.4532331253578
 20
134.4318486329746
 30
0.0
 10
145.2399815741399
 20
134.8015076224039
 30
0.0
 10
133.4277748914167
 20
127.0910343303099
 30
0.0
 10
133.2553477486307
 20
127.3893797961494
 30
0.0
 10
133.1278791315861
 20
127.6102105624347
 30
0.0
 10
142.9441684282343
 20
133.5853881138435
 30
0.0
 10
142.7763921674215
 20
133.8758098548396
 30
0.0
 10
142.5831221831999
 20
134.2106733569135
 30
0.0
 10
131.4470159354766
 20
126.88122787685
 30
0.0
 10
131.2506453632728
 20
127.2216035353366
 30
0.0
 10
131.1352345883811
 20
127.4214192052984
 30
0.0
 10
140.796494485921
 20
133.5447359602995
 30
0.0
 10
140.6283737153324
 20
133.8358467208473
 30
0.0
 10
140.4509511807974
 20
134.1431494408575
 30
0.0
 10
128.7391690977188
 20
126.6307692698462
 30
0.0
 10
128.5915466587901
 20
126.886395523487
 30
0.0
 10
128.4714850019251
 20
127.0944794280678
 30
0.0
 10
138.6662182872853
 20
133.3573226422664
 30
0.0
 10
138.5149784957108
 20
133.6194945816473
 30
0.0
 10
138.3499583131045
 20
133.9050931857823
 30
0.0
 10
127.3251287229634
 20
126.7737408268016
 30
0.0
 10
127.158385991478
 20
127.0627845286946
 30
0.0
 10
127.0310896293213
 20
127.2832707852041
 30
0.0
 10
136.3426721044281
 20
133.1506167767887
 30
0.0
 10
136.2040069196701
 20
133.3907400905186
 30
0.0
 10
136.0377809528485
 20
133.6784057533084
 30
0.0
 10
125.2796019291736
 20
126.649717307515
 30
0.0
 10
125.0918441013647
 20
126.9749345358666
 30
0.0
 10
124.9771223460246
 20
127.173716676501
 30
0.0
 10
133.8189657418333
 20
132.7065436757874
 30
0.0
 10
133.7140625151033
 20
132.8884448374078
 30
0.0
 10
133.5311278241556
 20
133.2050493213645
 30
0.0
 10
123.8803754747775
 20
126.8905296407965
 30
0.0
 10
123.7417102900195
 20
127.1306529545264
 30
0.0
 10
123.5639432457087
 20
127.4386446940882
 30
0.0
 10
134.0792428774473
 20
133.7235365339377
 30
0.0
 10
133.935926810716
 20
133.9719280822868
 30
0.0
 10
133.7492025122345
 20
134.2954227617594
 30
0.0
 10
122.1388785581278
 20
126.8092253337086
 30
0.0
 10
121.9866052372259
 20
127.0731198219685
 30
0.0
 10
121.8498348562349
 20
127.3097980379404
 30
0.0
 10
129.4791760961289
 20
132.3141470411556
 30
0.0
 10
129.3680716934346
 20
132.5067280058256
 30
0.0
 10
129.2209660191697
 20
132.761320730139
 30
0.0
 10
121.0931191336986
 20
127.3652641118436
 30
0.0
 10
120.9356781661597
 20
127.6381158542742
 30
0.0
 10
120.8352535665151
 20
127.8120932910513
 30
0.0
 10
127.702711437236
 20
132.3086348847428
 30
0.0
 10
127.6129666406411
 20
132.4640087936269
 30
0.0
 10
127.4946275326551
 20
132.6689921102256
 30
0.0
 10
120.4361389912553
 20
128.0205217054079
 30
0.0
 10
120.3062588057801
 20
128.2454865890028
 30
0.0
 10
120.2259880280196
 20
128.3843240286487
 30
0.0
 10
124.4240119009838
 20
131.7002306206868
 30
0.0
 10
124.3470139660934
 20
131.8335559039199
 30
0.0
 10
124.2763894620552
 20
131.9558568743276
 30
0.0
 10
119.0810097881611
 20
128.5831061692831
 30
0.0
 10
118.9900592073509
 20
128.7405471368219
 30
0.0
 10
118.9471677402642
 20
128.8149612483939
 30
0.0
 10
121.6486411471699
 20
131.5290092621161
 30
0.0
 10
121.5986872296795
 20
131.615481215841
 30
0.0
 10
121.5490778219648
 20
131.70160865979
 30
0.0
 10
118.8896346077063
 20
129.955633116055
 30
0.0
 10
118.8482934346107
 20
130.0276356591964
 30
0.0
 10
118.8290008871661
 20
130.0610531074487
 30
0.0
 10
119.3233724154337
 20
131.2375539917926
 30
0.0
 10
119.3080417304107
 20
131.2640812445289
 30
0.0
 10
119.2965006529216
 20
131.284062811525
 30
0.0
 10
119.3121758477203
 20
131.2323863451556
 30
0.0
 10
119.297361927361
 20
131.2578800685645
 30
0.0
  0
SPLINE
  5
72
330
64
100
AcDbEntity
  8
Ebene 2
 62
   250
420
  2301728
370
     5
100
AcDbSpline
210
0.0
220
0.0
230
1.0
 70
     8
 71
     3
 72
    32
 73
    28
 74
     0
 42
0.0000000001
 43
0.0000000001
 40
0.0
 40
0.0
 40
0.0
 40
0.0
 40
1.0
 40
1.0
 40
1.0
 40
2.0
 40
2.0
 40
2.0
 40
3.0
 40
3.0
 40
3.0
 40
4.0
 40
4.0
 40
4.0
 40
5.0
 40
5.0
 40
5.0
 40
6.0
 40
6.0
 40
6.0
 40
7.0
 40
7.0
 40
7.0
 40
8.0
 40
8.0
 40
8.0
 40
9.0
 40
9.0
 40
9.0
 40
9.0
 10
147.5759301089259
 20
175.2645252994398
 30
0.0
 10
147.5247704072201
 20
175.3530643118194
 30
0.0
 10
145.8912773052826
 20
174.1763911725876
 30
0.0
 10
145.8413233877922
 20
174.2630353812003
 30
0.0
 10
145.7998099598087
 20
174.3346934145659
 30
0.0
 10
148.1099202614099
 20
176.6057018566142
 30
0.0
 10
148.0754692838303
 20
176.665302047827
 30
0.0
 10
147.9853799774596
 20
176.8215372311505
 30
0.0
 10
143.7427420885298
 20
173.9929397169761
 30
0.0
 10
143.6688447416215
 20
174.1210973535723
 30
0.0
 10
143.6042491586597
 20
174.2328907758181
 30
0.0
 10
147.8606674386214
 20
177.5417349174524
 30
0.0
 10
147.7898706796953
 20
177.6643803976359
 30
0.0
 10
147.6773882378978
 20
177.8593729307365
 30
0.0
 10
141.3532222836076
 20
173.6844312127506
 30
0.0
 10
141.2390172929312
 20
173.8823520789455
 30
0.0
 10
141.1534066136458
 20
174.0306635374258
 30
0.0
 10
146.7673656651322
 20
178.2097393727212
 30
0.0
 10
146.6803769467437
 20
178.3602901447441
 30
0.0
 10
146.5293094100571
 20
178.6219453194613
 30
0.0
 10
138.6167811344586
 20
173.4212257440423
 30
0.0
 10
138.4939633993873
 20
173.6339605305965
 30
0.0
 10
138.4043908576803
 20
173.7891621845927
 30
0.0
 10
145.4895789067043
 20
178.7395954078957
 30
0.0
 10
145.3736513671489
 20
178.9404446071849
 30
0.0
 10
145.222928340238
 20
179.2014107623505
 30
0.0
 10
135.3556515967721
 20
172.7230766833914
 30
0.0
 10
135.1678937689632
 20
173.048293911743
 30
0.0
  0
SPLINE
  5
73
330
64
100
AcDbEntity
  8
Ebene 2
 62
   250
420
  2301728
370
     5
100
AcDbSpline
210
0.0
220
0.0
230
1.0
 70
     8
 71
     3
 72
   266
 73
   262
 74
     0
 42
0.0000000001
 43
0.0000000001
 40
0.0
 40
0.0
 40
0.0
 40
0.0
 40
1.0
 40
1.0
 40
1.0
 40
2.0
 40
2.0
 40
2.0
 40
3.0
 40
3.0
 40
3.0
 40
4.0
 40
4.0
 40
4.0
 40
5.0
 40
5.0
 40
5.0
 40
6.0
 40
6.0
 40
6.0
 40
7.0
 40
7.0
 40
7.0
 40
8.0
 40
8.0
 40
8.0
 40
9.0
 40
9.0
 40
9.0
 40
10.0
 40
10.0
 40
10.0
 40
11.0
 40
11.0
 40
11.0
 40
12.0
 40
12.0
 40
12.0
 40
13.0
 40
13.0
 40
13.0
 40
14.0
 40
14.0
 40
14.0
 40
15.0
 40
15.0
 40
15.0
 40
16.0
 40
16.0
 40
16.0
 40
17.0
 40
17.0
 40
17.0
 40
18.0
 40
18.0
 40
18.0
 40
19.0
 40
19.0
 40
19.0
 40
20.0
 40
20.0
 40
20.0
 40
21.0
 40
21.0
 40
21.0
 40
22.0
 40
22.0
 40
22.0
 40
23.0
 40
23.0
 40
23.0
 40
24.0
 40
24.0
 40
24.0
 40
25.0
 40
25.0
 40
25.0
 40
26.0
 40
26.0
 40
26.0
 40
27.0
 40
27.0
 40
27.0
 40
28.0
 40
28.0
 40
28.0
 40
29.0
 40
29.0
 40
29.0
 40
30.0
 40
30.0
 40
30.0
 40
31.0
 40
31.0
 40
31.0
 40
32.0
 40
32.0
 40
32.0
 40
33.0
 40
33.0
 40
33.0
 40
34.0
 40
34.0
 40
34.0
 40
35.0
 40
35.0
 40
35.0
 40
36.0
 40
36.0
 40
36.0
 40
37.0
 40
37.0
 40
37.0
 40
38.0
 40
38.0
 40
38.0
 40
39.0
 40
39.0
 40
39.0
 40
40.0
 40
40.0
 40
40.0
 40
41.0
 40
41.0
 40
41.0
 40
42.0
 40
42.0
 40
42.0
 40
43.0
 40
43.0
 40
43.0
 40
44.0
 40
44.0
 40
44.0
 40
45.0
 40
45.0
 40
45.0
 40
46.0
 40
46.0
 40
46.0
 40
47.0
 40
47.0
 40
47.0
 40
48.0
 40
48.0
 40
48.0
 40
49.0
 40
49.0
 40
49.0
 40
50.0
 40
50.0
 40
50.0
 40
51.0
 40
51.0
 40
51.0
 40
52.0
 40
52.0
 40
52.0
 40
53.0
 40
53.0
 40
53.0
 40
54.0
 40
54.0
 40
54.0
 40
55.0
 40
55.0
 40
55.0
 40
56.0
 40
56.0
 40
56.0
 40
57.0
 40
57.0
 40
57.0
 40
58.0
 40
58.0
 40
58.0
 40
59.0
 40
59.0
 40
59.0
 40
60.0
 40
60.0
 40
60.0
 40
61.0
 40
61.0
 40
61.0
 40
62.0
 40
62.0
 40
62.0
 40
63.0
 40
63.0
 40
63.0
 40
64.0
 40
64.0
 40
64.0
 40
65.0
 40
65.0
 40
65.0
 40
66.0
 40
66.0
 40
66.0
 40
67.0
 40
67.0
 40
67.0
 40
68.0
 40
68.0
 40
68.0
 40
69.0
 40
69.0
 40
69.0
 40
70.0
 40
70.0
 40
70.0
 40
71.0
 40
71.0
 40
71.0
 40
72.0
 40
72.0
 40
72.0
 40
73.0
 40
73.0
 40
73.0
 40
74.0
 40
74.0
 40
74.0
 40
75.0
 40
75.0
 40
75.0
 40
76.0
 40
76.0
 40
76.0
 40
77.0
 40
77.0
 40
77.0
 40
78.0
 40
78.0
 40
78.0
 40
79.0
 40
79.0
 40
79.0
 40
80.0
 40
80.0
 40
80.0
 40
81.0
 40
81.0
 40
81.0
 40
82.0
 40
82.0
 40
82.0
 40
83.0
 40
83.0
 40
83.0
 40
84.0
 40
84.0
 40
84.0
 40
85.0
 40
85.0
 40
85.0
 40
86.0
 40
86.0
 40
86.0
 40
87.0
 40
87.0
 40
87.0
 40
87.0
 10
134.0487537622893
 20
135.2204315097721
 30
0.0
 10
133.9903593552918
 20
135.3217173838561
 30
0.0
 10
130.9548837207518
 20
133.2694726494384
 30
0.0
 10
130.883570197162
 20
133.3931516589492
 30
0.0
 10
130.8038161840652
 20
133.5313000790435
 30
0.0
 10
134.9489578064447
 20
136.8716668651631
 30
0.0
 10
134.8797113415096
 20
136.9915562671402
 30
0.0
 10
134.8073642885925
 20
137.11695782553
 30
0.0
 10
130.5290696378677
 20
134.294389232432
 30
0.0
 10
130.4487988601072
 20
134.4335711818536
 30
0.0
 10
130.3693893567862
 20
134.5710305823963
 30
0.0
 10
135.4004378676256
 20
138.4781159497007
 30
0.0
 10
135.3334307162332
 20
138.594215744144
 30
0.0
 10
135.2343841556918
 20
138.7657816124904
 30
0.0
 10
130.3137510279951
 20
135.4857040371351
 30
0.0
 10
130.222628192297
 20
135.6434895144498
 30
0.0
 10
130.1406348656575
 20
135.7854275420778
 30
0.0
 10
135.2631507219708
 20
139.4744382213032
 30
0.0
 10
135.1942487668116
 20
139.5939831135044
 30
0.0
 10
135.1217294590065
 20
139.7193846718942
 30
0.0
 10
130.0508900690627
 20
136.4224261175249
 30
0.0
 10
129.9635568408983
 20
136.5740104188752
 30
0.0
 10
129.8586536141684
 20
136.7555670707198
 30
0.0
 10
136.1359662389504
 20
140.8810716358789
 30
0.0
 10
136.050355559665
 20
141.0292108394713
 30
0.0
 10
135.9681899781376
 20
141.1714933768751
 30
0.0
 10
130.8429180436181
 20
137.8080444357771
 30
0.0
 10
130.7499004041531
 20
137.9689305010739
 30
0.0
 10
130.6792759001149
 20
138.0912314714815
 30
0.0
 10
136.1490576104306
 20
142.1347427100012
 30
0.0
 10
136.0730932048676
 20
142.2663454443553
 30
0.0
 10
135.9647448803797
 20
142.4541032721642
 30
0.0
 10
130.67393599859
 20
138.9566400282815
 30
0.0
 10
130.5905646328474
 20
139.1009896243401
 30
0.0
 10
130.4946186602881
 20
139.2673878460497
 30
0.0
 10
136.6663390387886
 20
143.4511145633183
 30
0.0
 10
136.5559236556459
 20
143.6423174888852
 30
0.0
 10
136.4711742508001
 20
143.7890786533744
 30
0.0
 10
130.5683437523085
 20
139.9774224939656
 30
0.0
 10
130.4782544459378
 20
140.1334854224012
 30
0.0
 10
130.3864425906881
 20
140.2923044290433
 30
0.0
 10
136.1655940796689
 20
144.1883654835221
 30
0.0
 10
136.0810169297109
 20
144.3347821382355
 30
0.0
 10
136.0002293872867
 20
144.4746531072088
 30
0.0
 10
130.1459747671824
 20
140.6437044003553
 30
0.0
 10
130.0314252667302
 20
140.8421420312139
 30
0.0
 10
129.9420249799111
 20
140.9968269205464
 30
0.0
 10
136.6851148215695
 20
145.5030147879603
 30
0.0
 10
136.5678092429109
 20
145.7062755556801
 30
0.0
 10
136.457738369544
 20
145.8967894616953
 30
0.0
 10
130.1292660430563
 20
141.7730074454152
 30
0.0
 10
130.0357316389276
 20
141.9349270400394
 30
0.0
 10
129.9318619415251
 20
142.1151056527808
 30
0.0
 10
136.239663681465
 20
146.4969254911323
 30
0.0
 10
136.1363107487262
 20
146.6760705745463
 30
0.0
 10
136.0298572280052
 20
146.8603833045972
 30
0.0
 10
130.2377866224321
 20
142.9898159735273
 30
0.0
 10
130.116174671576
 20
143.2003114465387
 30
0.0
 10
130.0121327192856
 20
143.3808345690559
 30
0.0
 10
136.6609991372638
 20
148.0251708565641
 30
0.0
 10
136.5640196353771
 20
148.1932916271526
 30
0.0
 10
136.4532597424587
 20
148.3851835722711
 30
0.0
 10
130.3268423994754
 20
144.330648020926
 30
0.0
 10
130.2136709381263
 20
144.526674083354
 30
0.0
 10
130.1087677113964
 20
144.7085752449744
 30
0.0
 10
136.778821480586
 20
149.0531880275398
 30
0.0
 10
136.6746072734077
 20
149.233711150057
 30
0.0
 10
136.5872740452434
 20
149.3849509416316
 30
0.0
 10
130.6930562911467
 20
145.4981916510992
 30
0.0
 10
130.570927575627
 20
145.709720653438
 30
0.0
 10
130.4656798391212
 20
145.8919663248342
 30
0.0
 10
136.4336226852383
 20
150.2441583224672
 30
0.0
 10
136.3561079856841
 20
150.3785171350277
 30
0.0
 10
136.2610232875644
 20
150.5431928078583
 30
0.0
 10
130.6573995293518
 20
146.8428133060316
 30
0.0
 10
130.5511182635187
 20
147.0267815263068
 30
0.0
 10
130.4565503300626
 20
147.1907681795857
 30
0.0
 10
136.7557393256077
 20
151.4299609707576
 30
0.0
 10
136.6513528635415
 20
151.6104840932748
 30
0.0
 10
136.5340472848829
 20
151.8137448609945
 30
0.0
 10
130.5288973829798
 20
147.8322453821182
 30
0.0
 10
130.4234773915862
 20
148.0148355632902
 30
0.0
 10
130.3254643603722
 20
148.1846788827577
 30
0.0
 10
136.5180275803083
 20
152.3413615826264
 30
0.0
 10
136.4375845476599
 20
152.4807157869359
 30
0.0
 10
136.3171783810192
 20
152.6893164561805
 30
0.0
 10
130.6038282592155
 20
148.8702533365921
 30
0.0
 10
130.4987527775977
 20
149.0518099884366
 30
0.0
 10
130.386614845576
 20
149.2461135019857
 30
0.0
 10
137.1477914504637
 20
153.8315386178327
 30
0.0
 10
137.0456443019402
 20
154.008444387704
 30
0.0
 10
136.9309225466
 20
154.2070542734505
 30
0.0
 10
130.3788633756206
 20
149.8679536472978
 30
0.0
 10
130.2526005427913
 20
150.0863728451525
 30
0.0
 10
130.146663786734
 20
150.2699965556519
 30
0.0
 10
136.733346190181
 20
154.6351076698773
 30
0.0
 10
136.6270649243478
 20
154.8194203999282
 30
0.0
 10
136.5316357164523
 20
154.9846128374225
 30
0.0
 10
130.0035199748907
 20
150.7719472989869
 30
0.0
 10
129.906712727892
 20
150.9393790500239
 30
0.0
 10
129.7768325424168
 20
151.1643439336188
 30
0.0
 10
137.1002491014039
 20
156.1321749005995
 30
0.0
 10
136.9734695039109
 20
156.3517998826696
 30
0.0
 10
136.8454841222026
 20
156.5733196685065
 30
0.0
 10
129.8381552825085
 20
151.9770424947219
 30
0.0
 10
129.7275676444779
 20
152.1685899300646
 30
0.0
 10
129.6374783381073
 20
152.3246528585003
 30
0.0
 10
136.4573938597682
 20
156.9066328765893
 30
0.0
 10
136.3705773962676
 20
157.0571836486122
 30
0.0
 10
136.2760094628115
 20
157.2209980470033
 30
0.0
 10
130.1034278098716
 20
153.1680127896493
 30
0.0
 10
129.986122231213
 20
153.3711013024811
 30
0.0
 10
129.891382042869
 20
153.535260210648
 30
0.0
 10
136.4880552298141
 20
157.8814232872046
 30
0.0
 10
136.3921092572548
 20
158.0478215089141
 30
0.0
 10
136.2909956380587
 20
158.2228324750186
 30
0.0
 10
129.9346180197315
 20
154.0768295781996
 30
0.0
 10
129.8295425381136
 20
154.2589029947079
 30
0.0
 10
129.7385919573034
 20
154.4163439622467
 30
0.0
 10
136.5745271835389
 20
158.8403662481332
 30
0.0
 10
136.4708297410243
 20
159.0202003510988
 30
0.0
 10
136.3607588676574
 20
159.2107142571141
 30
0.0
 10
130.4131420983123
 20
155.2826137934862
 30
0.0
 10
130.3091001460219
 20
155.4627924062275
 30
0.0
 10
130.2286571133735
 20
155.6019743556492
 30
0.0
 10
136.3795346504383
 20
160.0106659565128
 30
0.0
 10
136.2816938741122
 20
160.1801647662045
 30
0.0
 10
136.1929826068447
 20
160.3339883810975
 30
0.0
 10
130.3592263184002
 20
156.4928766358581
 30
0.0
 10
130.2432987788448
 20
156.6938980900352
 30
0.0
 10
130.1490753551646
 20
156.8568512139868
 30
0.0
 10
136.526984834479
 20
161.1859610566414
 30
0.0
 10
136.4229428821886
 20
161.3659674144949
 30
0.0
 10
136.297196814023
 20
161.5840421025739
 30
0.0
 10
130.2329634855709
 20
157.512281062439
 30
0.0
 10
130.1116960444907
 20
157.7222597707867
 30
0.0
 10
130.016611346371
 20
157.8869354436173
 30
0.0
 10
136.9355734285733
 20
162.6821670129242
 30
0.0
 10
136.8442783379873
 20
162.8404692549025
 30
0.0
 10
136.7292120728714
 20
163.0397681602006
 30
0.0
 10
130.2195276043149
 20
158.7947187028402
 30
0.0
 10
130.1237538866436
 20
158.9604279049982
 30
0.0
 10
130.0322865411697
 20
159.1190746567523
 30
0.0
 10
137.1150630217631
 20
163.6454163460503
 30
0.0
 10
136.9906949927007
 20
163.8609072108108
 30
0.0
 10
136.8966438239083
 20
164.0236880798745
 30
0.0
 10
130.2744769135544
 20
159.7131817651128
 30
0.0
 10
130.1575158446716
 20
159.9157535132809
 30
0.0
 10
130.0725941849378
 20
160.062686932658
 30
0.0
 10
136.7996643220217
 20
164.5625013692197
 30
0.0
 10
136.7143981525122
 20
164.7101238081483
 30
0.0
 10
136.6112174746612
 20
164.8889243817865
 30
0.0
 10
130.3313210265607
 20
160.8240535371675
 30
0.0
 10
130.2443323081722
 20
160.9746043091905
 30
0.0
 10
130.1323666310385
 20
161.1685633129637
 30
0.0
 10
136.9584833286637
 20
165.8640593021776
 30
0.0
 10
136.8632263756561
 20
166.0290794847839
 30
0.0
 10
136.7459207969975
 20
166.2325125073916
 30
0.0
 10
130.3850645515849
 20
162.0911604925458
 30
0.0
 10
130.2994538722996
 20
162.2394719510261
 30
0.0
 10
130.1964454493366
 20
162.4181002697764
 30
0.0
 10
136.3016754411084
 20
166.566514735026
 30
0.0
 10
136.221060153572
 20
166.7062134491113
 30
0.0
 10
136.1137453584115
 20
166.8920764731534
 30
0.0
 10
129.7532336227748
 20
162.7626100455726
 30
0.0
 10
129.6626275517404
 20
162.9195342484477
 30
0.0
 10
129.5694376573875
 20
163.0809370784083
 30
0.0
 10
136.4964957193211
 20
167.9421422697801
 30
0.0
 10
136.3991717076587
 20
168.1107798050323
 30
0.0
 10
136.3102881855033
 20
168.2647756748132
 30
0.0
 10
130.3278759288028
 20
164.3864568737878
 30
0.0
 10
130.2329634855709
 20
164.5507880368426
 30
0.0
 10
130.1299550626079
 20
164.7294163555929
 30
0.0
 10
136.1793744707007
 20
168.7934259257724
 30
0.0
 10
136.0844620274689
 20
168.9579293437151
 30
0.0
 10
135.9749079187657
 20
169.1475819752909
 30
0.0
 10
129.9921511522894
 20
165.2243046485241
 30
0.0
 10
129.8984444932728
 20
165.3865687529241
 30
0.0
 10
129.7978476387404
 20
165.560890699477
 30
0.0
 10
135.6908596086217
 20
169.6469488953074
 30
0.0
 10
135.5837170683491
 20
169.8324674095737
 30
0.0
 10
135.472440410767
 20
170.0250483742437
 30
0.0
 10
130.153381727362
 20
166.4426634706273
 30
0.0
 10
130.0431385991072
 20
166.6336941413062
 30
0.0
 10
129.9509822340818
 20
166.7932021674999
 30
0.0
 10
135.989549584237
 20
170.7671224313087
 30
0.0
 10
135.884818612395
 20
170.9485068282654
 30
0.0
 10
135.7961073451275
 20
171.1021581882704
 30
0.0
 10
129.7635689160487
 20
167.1616553727139
 30
0.0
 10
129.6540148073455
 20
167.3513080042896
 30
0.0
 10
129.5673705987327
 20
167.5015142665368
 30
0.0
 10
134.6743835151351
 20
171.3813833615532
 30
0.0
 10
134.6020364622179
 20
171.506784919943
 30
0.0
 10
134.5004060783581
 20
171.6828294153749
 30
0.0
 10
130.3053105384881
 20
168.824604060482
 30
0.0
 10
130.2181495652117
 20
168.9756715971686
 30
0.0
 10
130.1475250611735
 20
169.0978003126883
 30
0.0
 10
134.2404734525199
 20
172.1803015316246
 30
0.0
 10
134.1769113988855
 20
172.2905446598793
 30
0.0
 10
134.1099042474931
 20
172.4064721994347
 30
0.0
 10
129.8746733187429
 20
169.6025071342297
 30
0.0
 10
129.7863065612512
 20
169.7556417295711
 30
0.0
 10
129.5541069723646
 20
170.1576846379253
 30
0.0
 10
145.2442879463374
 20
179.4649607408346
 30
0.0
 10
145.045505805703
 20
179.8092982617428
 30
0.0
 10
144.8007316099998
 20
180.23321754086
 30
0.0
 10
130.1048058489748
 20
170.5547321545303
 30
0.0
 10
129.8326431260958
 20
171.0261937827074
 30
0.0
 10
129.6205973590932
 20
171.3934412037061
 30
0.0
 10
143.7503213035973
 20
179.5424754403887
 30
0.0
 10
143.5186384793744
 20
179.9438293291912
 30
0.0
 10
143.3472448659158
 20
180.2404522461517
 30
0.0
 10
130.435707488627
 20
171.9009041034539
 30
0.0
 10
130.2238339765123
 20
172.2679792695647
 30
0.0
 10
130.0508900690627
 20
172.5675305196195
 30
0.0
 10
142.1672988838139
 20
180.1917041128766
 30
0.0
 10
142.0196764448852
 20
180.4475026214052
 30
0.0
 10
141.8455267532203
 20
180.7489486752269
 30
0.0
 10
128.7939461520703
 20
172.2946787771889
 30
0.0
 10
128.5701870526907
 20
172.6824245298475
 30
0.0
 10
128.3703713827289
 20
173.0283123447468
 30
0.0
 10
139.9796618075083
 20
180.0756043184332
 30
0.0
 10
139.8160196640051
 20
180.3589636090256
 30
0.0
 10
139.6020790932356
 20
180.7294838728944
 30
0.0
 10
126.5486036883188
 20
172.2001108437328
 30
0.0
 10
126.3325960588946
 20
172.5744207151354
 30
0.0
 10
126.1901412666029
 20
172.8209174597175
 30
0.0
 10
136.8866530404102
 20
179.509747011688
 30
0.0
 10
136.7007900163682
 20
179.8316913971696
 30
0.0
 10
136.5181998351962
 20
180.1479513713504
 30
0.0
 10
123.4955580552132
 20
171.8158101888322
 30
0.0
 10
123.3258869906335
 20
172.1096770275863
 30
0.0
 10
123.1980738638132
 20
172.3311968134233
 30
0.0
 10
133.6527397750116
 20
178.9073716687084
 30
0.0
 10
133.5121797864868
 20
179.1507678253084
 30
0.0
 10
133.3592174460333
 20
179.4156958428957
 30
0.0
 10
121.9518097498705
 20
172.0102859572691
 30
0.0
 10
121.7500992761419
 20
172.3597911248144
 30
0.0
 10
121.6221138944336
 20
172.5813109106513
 30
0.0
 10
129.7489272505773
 20
178.0025167425798
 30
0.0
 10
129.6493639253722
 20
178.1749438853658
 30
0.0
 10
129.5008802120041
 20
178.4319481781097
 30
0.0
 10
120.0168705941113
 20
172.3156938735125
 30
0.0
 10
119.8880239379636
 20
172.5392807180042
 30
0.0
 10
119.7788143390362
 20
172.7282443300284
 30
0.0
 10
126.2831589060679
 20
177.0893935818321
 30
0.0
 10
126.1901412666029
 20
177.2504519020168
 30
0.0
 10
126.0749027465991
 20
177.4499230622027
 30
0.0
 10
118.6076533562171
 20
172.5516830699328
 30
0.0
 10
118.4686436616834
 20
172.7924954032143
 30
0.0
 10
118.394918569663
 20
172.9199640202589
 30
0.0
 10
122.6756247888183
 20
176.3740190323913
 30
0.0
 10
122.6099956765291
 20
176.4875350035161
 30
0.0
 10
122.540921466482
 20
176.6072521506053
 30
0.0
 10
117.8068403823789
 20
173.5318133820729
 30
0.0
 10
117.7277753888337
 20
173.6687560179519
 30
0.0
 10
117.6953914699089
 20
173.7247388565188
 30
0.0
 10
119.5938125894336
 20
175.9140984817034
 30
0.0
 10
119.5641847487152
 20
175.9654304382971
 30
0.0
 10
119.5455812208222
 20
175.9974698474461
 30
0.0
 10
119.1457776260107
 20
175.688444578557
 30
0.0
 10
119.1304469409878
 20
175.7149718312932
 30
0.0
  0
SPLINE
  5
74
330
64
100
AcDbEntity
  8
Ebene 2
 62
   250
420
  2301728
370
     5
100
AcDbSpline
210
0.0
220
0.0
230
1.0
 70
     8
 71
     3
 72
    38
 73
    34
 74
     0
 42
0.0000000001
 43
0.0000000001
 40
0.0
 40
0.0
 40
0.0
 40
0.0
 40
1.0
 40
1.0
 40
1.0
 40
2.0
 40
2.0
 40
2.0
 40
3.0
 40
3.0
 40
3.0
 40
4.0
 40
4.0
 40
4.0
 40
5.0
 40
5.0
 40
5.0
 40
6.0
 40
6.0
 40
6.0
 40
7.0
 40
7.0
 40
7.0
 40
8.0
 40
8.0
 40
8.0
 40
9.0
 40
9.0
 40
9.0
 40
10.0
 40
10.0
 40
10.0
 40
11.0
 40
11.0
 40
11.0
 40
11.0
 10
156.3878011542403
 20
156.64187711389
 30
0.0
 10
156.4129503678734
 20
156.5981243723638
 30
0.0
 10
157.0823328622454
 20
157.0875005088823
 30
0.0
 10
157.1016254096899
 20
157.0539108057422
 30
0.0
 10
157.1188508984797
 20
157.0241107101358
 30
0.0
 10
156.9593428722861
 20
155.9399384457053
 30
0.0
 10
156.9755348317485
 20
155.9120331538658
 30
0.0
 10
157.0013730649333
 20
155.8670746281244
 30
0.0
 10
157.9908051410198
 20
156.5633288850084
 30
0.0
 10
158.0190549426351
 20
156.5144084968454
 30
0.0
 10
158.0352469020976
 20
156.4859864403422
 30
0.0
 10
157.6149449756262
 20
155.3840719224581
 30
0.0
 10
157.6332039937434
 20
155.352204768197
 30
0.0
 10
157.6597312464797
 20
155.3067294777919
 30
0.0
 10
158.6815472414912
 20
156.0155583414925
 30
0.0
 10
158.7066964551243
 20
155.9719778548543
 30
0.0
 10
158.7263335123447
 20
155.9383881517142
 30
0.0
 10
158.0014849440695
 20
154.2740614248429
 30
0.0
 10
158.0256006283753
 20
154.2323757419715
 30
0.0
 10
158.0521278811116
 20
154.1862114320149
 30
0.0
 10
159.59622069623
 20
155.2004482119588
 30
0.0
 10
159.6227479489663
 20
155.15445615689
 30
0.0
 10
159.6561653972185
 20
155.0965785145562
 30
0.0
 10
157.7582610423574
 20
152.8686337944824
 30
0.0
 10
157.7934010394887
 20
152.8080000739423
 30
0.0
 10
157.8206173117765
 20
152.7609744895461
 30
0.0
 10
159.6837261792822
 20
153.9791610567614
 30
0.0
 10
159.7185216666376
 20
153.9193886106607
 30
0.0
 10
159.7571067615268
 20
153.8525537141563
 30
0.0
 10
157.5033238082683
 20
151.7985864308595
 30
0.0
 10
157.5487990986734
 20
151.720038201978
 30
0.0
 10
157.5801494882708
 20
151.665950167178
 30
0.0
 10
158.999529764551
 20
152.6509036161792
 30
0.0
 10
159.0398374083192
 20
152.5807958768047
 30
0.0
  0
SPLINE
  5
75
330
64
100
AcDbEntity
  8
Ebene 2
 62
   250
420
  2301728
370
     5
100
AcDbSpline
210
0.0
220
0.0
230
1.0
 70
     8
 71
     3
 72
    26
 73
    22
 74
     0
 42
0.0000000001
 43
0.0000000001
 40
0.0
 40
0.0
 40
0.0
 40
0.0
 40
1.0
 40
1.0
 40
1.0
 40
2.0
 40
2.0
 40
2.0
 40
3.0
 40
3.0
 40
3.0
 40
4.0
 40
4.0
 40
4.0
 40
5.0
 40
5.0
 40
5.0
 40
6.0
 40
6.0
 40
6.0
 40
7.0
 40
7.0
 40
7.0
 40
7.0
 10
153.44741021782
 20
150.8250018044595
 30
0.0
 10
153.4853062931575
 20
150.7588559275067
 30
0.0
 10
154.8723026505129
 20
151.71659310422
 30
0.0
 10
154.9019304912314
 20
151.6649166378506
 30
0.0
 10
154.9267351950887
 20
151.6215084061003
 30
0.0
 10
153.5948604018607
 20
150.011269714029
 30
0.0
 10
153.6258662816824
 20
149.9568371694532
 30
0.0
 10
153.6513600050913
 20
149.9130844279271
 30
0.0
 10
154.9570520553588
 20
150.7953739637411
 30
0.0
 10
154.9873689156288
 20
150.74300847782
 30
0.0
 10
155.0114845999346
 20
150.7016673047245
 30
0.0
 10
154.3079956377588
 20
149.0297613627857
 30
0.0
 10
154.3286662243066
 20
148.9939323461029
 30
0.0
 10
154.3627726921104
 20
148.9343321548902
 30
0.0
 10
155.8682804123397
 20
149.9440903077487
 30
0.0
 10
155.8948076650759
 20
149.8982705075678
 30
0.0
 10
155.9103106049868
 20
149.8713987450557
 30
0.0
 10
156.4225966415957
 20
148.9846305821564
 30
0.0
 10
156.4384440912823
 20
148.9563807805411
 30
0.0
 10
156.4908095772033
 20
148.8661192192825
 30
0.0
 10
158.9399295733383
 20
150.511497908485
 30
0.0
 10
158.987816432174
 20
150.4284710525181
 30
0.0
  0
SPLINE
  5
76
330
64
100
AcDbEntity
  8
Ebene 2
 62
   250
420
  2301728
370
     5
100
AcDbSpline
210
0.0
220
0.0
230
1.0
 70
     8
 71
     3
 72
    38
 73
    34
 74
     0
 42
0.0000000001
 43
0.0000000001
 40
0.0
 40
0.0
 40
0.0
 40
0.0
 40
1.0
 40
1.0
 40
1.0
 40
2.0
 40
2.0
 40
2.0
 40
3.0
 40
3.0
 40
3.0
 40
4.0
 40
4.0
 40
4.0
 40
5.0
 40
5.0
 40
5.0
 40
6.0
 40
6.0
 40
6.0
 40
7.0
 40
7.0
 40
7.0
 40
8.0
 40
8.0
 40
8.0
 40
9.0
 40
9.0
 40
9.0
 40
10.0
 40
10.0
 40
10.0
 40
11.0
 40
11.0
 40
11.0
 40
11.0
 10
152.5256743126773
 20
150.2875665542175
 30
0.0
 10
152.4957019621831
 20
150.3399320401385
 30
0.0
 10
150.738013086071
 20
149.1954705649437
 30
0.0
 10
150.7118303431105
 20
149.240601345573
 30
0.0
 10
150.6654937782659
 20
149.3208721233335
 30
0.0
 10
154.2628648571295
 20
152.1017550335601
 30
0.0
 10
154.2091213321053
 20
152.1947726730251
 30
0.0
 10
154.1440089844798
 20
152.3074273697104
 30
0.0
 10
151.7093583989283
 20
150.60451554795
 30
0.0
 10
151.6457963452939
 20
150.7147586762048
 30
0.0
 10
151.5906747811665
 20
150.8101878841003
 30
0.0
 10
154.899174413025
 20
153.5993390289461
 30
0.0
 10
154.8533546128441
 20
153.6790930420429
 30
0.0
 10
154.7965104998378
 20
153.7776228379206
 30
0.0
 10
152.4219768701627
 20
152.1672118909614
 30
0.0
 10
152.3751235406544
 20
152.2481716882735
 30
0.0
 10
152.3289592306977
 20
152.3280979562582
 30
0.0
 10
155.1744377238862
 20
154.9112322551779
 30
0.0
 10
155.1237947868441
 20
154.9990822480059
 30
0.0
 10
155.0779749866632
 20
155.078319496439
 30
0.0
 10
152.8913714396849
 20
153.6027841267041
 30
0.0
 10
152.8445181101767
 20
153.6833994142403
 30
0.0
 10
152.7766496843448
 20
153.8013940124505
 30
0.0
 10
157.0837109013485
 20
157.3074700007282
 30
0.0
 10
157.0144644364135
 20
157.4271871478173
 30
0.0
 10
156.9393613052899
 20
157.5570673332925
 30
0.0
 10
153.5376717790786
 20
155.2791686957282
 30
0.0
 10
153.4763490389869
 20
155.3845886871218
 30
0.0
 10
153.4536113937843
 20
155.4245518211142
 30
0.0
 10
154.5842924779473
 20
157.2899000021625
 30
0.0
 10
154.5546646372289
 20
157.3414042136441
 30
0.0
 10
154.540884246197
 20
157.3656921528377
 30
0.0
 10
154.4196168051168
 20
157.2234096154339
 30
0.0
 10
154.4023913163269
 20
157.2533819659282
 30
0.0
  0
SPLINE
  5
77
330
64
100
AcDbEntity
  8
Ebene 2
 62
   250
420
  2301728
370
     5
100
AcDbSpline
210
0.0
220
0.0
230
1.0
 70
     8
 71
     3
 72
   104
 73
   100
 74
     0
 42
0.0000000001
 43
0.0000000001
 40
0.0
 40
0.0
 40
0.0
 40
0.0
 40
1.0
 40
1.0
 40
1.0
 40
2.0
 40
2.0
 40
2.0
 40
3.0
 40
3.0
 40
3.0
 40
4.0
 40
4.0
 40
4.0
 40
5.0
 40
5.0
 40
5.0
 40
6.0
 40
6.0
 40
6.0
 40
7.0
 40
7.0
 40
7.0
 40
8.0
 40
8.0
 40
8.0
 40
9.0
 40
9.0
 40
9.0
 40
10.0
 40
10.0
 40
10.0
 40
11.0
 40
11.0
 40
11.0
 40
12.0
 40
12.0
 40
12.0
 40
13.0
 40
13.0
 40
13.0
 40
14.0
 40
14.0
 40
14.0
 40
15.0
 40
15.0
 40
15.0
 40
16.0
 40
16.0
 40
16.0
 40
17.0
 40
17.0
 40
17.0
 40
18.0
 40
18.0
 40
18.0
 40
19.0
 40
19.0
 40
19.0
 40
20.0
 40
20.0
 40
20.0
 40
21.0
 40
21.0
 40
21.0
 40
22.0
 40
22.0
 40
22.0
 40
23.0
 40
23.0
 40
23.0
 40
24.0
 40
24.0
 40
24.0
 40
25.0
 40
25.0
 40
25.0
 40
26.0
 40
26.0
 40
26.0
 40
27.0
 40
27.0
 40
27.0
 40
28.0
 40
28.0
 40
28.0
 40
29.0
 40
29.0
 40
29.0
 40
30.0
 40
30.0
 40
30.0
 40
31.0
 40
31.0
 40
31.0
 40
32.0
 40
32.0
 40
32.0
 40
33.0
 40
33.0
 40
33.0
 40
33.0
 10
147.7175236267781
 20
164.2979178614082
 30
0.0
 10
147.7268253907246
 20
164.2817259019458
 30
0.0
 10
148.481646309494
 20
164.7649008624999
 30
0.0
 10
148.4926706223195
 20
164.7454360601674
 30
0.0
 10
148.5133412088672
 20
164.7097792983725
 30
0.0
 10
147.4944535469501
 20
162.9844743411853
 30
0.0
 10
147.5168466823768
 20
162.9457169914082
 30
0.0
 10
147.5552595223781
 20
162.8790543497917
 30
0.0
 10
149.6536685667526
 20
164.2570934529764
 30
0.0
 10
149.6874305247806
 20
164.1988713008668
 30
0.0
 10
149.7253266001182
 20
164.1332421885776
 30
0.0
 10
147.6129649098239
 20
161.7952265951369
 30
0.0
 10
147.6553396122469
 20
161.7216737580045
 30
0.0
 10
147.7037432357463
 20
161.6377856275981
 30
0.0
 10
149.9299654069411
 20
163.1276181530286
 30
0.0
 10
149.9701007958213
 20
163.0580271783178
 30
0.0
 10
150.0052407929525
 20
162.9970489480019
 30
0.0
 10
147.9426607652609
 20
160.9100087262287
 30
0.0
 10
147.9840019383564
 20
160.838522947751
 30
0.0
 10
148.0179361512724
 20
160.7796117760898
 30
0.0
 10
149.7875106146494
 20
161.9700653063535
 30
0.0
 10
149.8266124742022
 20
161.9023691354095
 30
0.0
 10
149.8598576675666
 20
161.8446637479637
 30
0.0
 10
147.648449416731
 20
159.4892504108453
 30
0.0
 10
147.6911686289297
 20
159.4151808090491
 30
0.0
 10
147.7356103900074
 20
159.3381828741587
 30
0.0
 10
149.5577225941933
 20
160.5706665970694
 30
0.0
 10
149.5914845522213
 20
160.512272190072
 30
0.0
 10
149.6329979802048
 20
160.4404419018185
 30
0.0
 10
147.0102450570685
 20
157.9491194581485
 30
0.0
 10
147.0479688775182
 20
157.8838348556351
 30
0.0
 10
147.0820753453221
 20
157.824923683974
 30
0.0
 10
149.3963197642328
 20
159.324057973351
 30
0.0
 10
149.4328378004672
 20
159.2606681746045
 30
0.0
 10
149.4779685810965
 20
159.1828089652746
 30
0.0
 10
147.4699933528686
 20
156.935916207532
 30
0.0
 10
147.5046165853361
 20
156.8759715065434
 30
0.0
 10
147.5461300133195
 20
156.803968963402
 30
0.0
 10
149.5268889692596
 20
158.1389443446122
 30
0.0
 10
149.5680578874672
 20
158.0674585661345
 30
0.0
 10
149.6083655312354
 20
157.9976953365358
 30
0.0
 10
147.2705221926826
 20
155.6707040559205
 30
0.0
 10
147.3196148357335
 20
155.5856101412989
 30
0.0
 10
147.362850812596
 20
155.5108515199511
 30
0.0
 10
149.4276701538303
 20
156.8799333689651
 30
0.0
 10
149.4610876020825
 20
156.8220557266313
 30
0.0
 10
149.4922657367921
 20
156.7681399467193
 30
0.0
 10
147.6083140278507
 20
154.4673314090645
 30
0.0
 10
147.6446598091972
 20
154.4042861200938
 30
0.0
 10
147.6832449040864
 20
154.3374512235894
 30
0.0
 10
148.9258916653831
 20
155.2159511518696
 30
0.0
 10
148.9570698000927
 20
155.1618631170696
 30
0.0
 10
148.9951381303182
 20
155.0958894950047
 30
0.0
 10
147.1630351426342
 20
153.1907504348518
 30
0.0
 10
147.1980028848775
 20
153.1302889691996
 30
0.0
 10
147.2434781752826
 20
153.0513962305423
 30
0.0
 10
149.2728130096099
 20
154.4227173930989
 30
0.0
 10
149.3136374180417
 20
154.3519206341728
 30
0.0
 10
149.3501554542761
 20
154.2888753452021
 30
0.0
 10
147.0767354437972
 20
151.914341715527
 30
0.0
 10
147.1192824011081
 20
151.8406166235066
 30
0.0
 10
147.1602790644278
 20
151.7696476096926
 30
0.0
 10
148.5262603254596
 20
152.7251454728633
 30
0.0
 10
148.5574384601692
 20
152.6710574380633
 30
0.0
 10
148.5803483602596
 20
152.6314388138468
 30
0.0
 10
147.5569820712571
 20
151.123347270299
 30
0.0
 10
147.582475794666
 20
151.0792500189971
 30
0.0
 10
147.6186493211246
 20
151.0165492398022
 30
0.0
 10
148.402236806173
 20
151.6497582077156
 30
0.0
 10
148.4442669988201
 20
151.5767221352468
 30
0.0
 10
148.4718277808838
 20
151.5291797861869
 30
0.0
 10
147.0755296595819
 20
149.5640960250456
 30
0.0
 10
147.1086025980584
 20
149.5065628924876
 30
0.0
 10
147.1485657320507
 20
149.4373164275526
 30
0.0
 10
149.2047723288902
 20
150.7919288659831
 30
0.0
 10
149.2373285027029
 20
150.7354292627525
 30
0.0
 10
149.2728130096099
 20
150.6741065226608
 30
0.0
 10
147.5941891270431
 20
148.9171066661004
 30
0.0
 10
147.6255395166405
 20
148.8630186313003
 30
0.0
 10
147.6627465724265
 20
148.7985953032265
 30
0.0
 10
148.6892134494112
 20
149.5640960250456
 30
0.0
 10
148.726765014973
 20
149.4986391676443
 30
0.0
 10
148.7562206008035
 20
149.4476517208265
 30
0.0
 10
147.7164900974507
 20
147.8160534226558
 30
0.0
 10
147.7443953892902
 20
147.7678220540443
 30
0.0
 10
147.7731619555692
 20
147.7182126463297
 30
0.0
 10
149.0974575337297
 20
148.62702943488
 30
0.0
 10
149.1310472368698
 20
148.5684627729946
 30
0.0
 10
149.1515455685297
 20
148.5333227758634
 30
0.0
 10
148.4296253333488
 20
147.1859450427246
 30
0.0
 10
148.4518462138876
 20
147.1473599478354
 30
0.0
 10
148.5131689539793
 20
147.0412509368902
 30
0.0
 10
152.0487005280875
 20
149.3570456497921
 30
0.0
 10
152.1062336606455
 20
149.257482324587
 30
0.0
 10
152.1582546367907
 20
149.1672207633284
 30
0.0
 10
148.8097918709398
 20
146.1672296356953
 30
0.0
 10
148.8595735335424
 20
146.0811021917463
 30
0.0
 10
148.8917851975793
 20
146.0252916080673
 30
0.0
 10
150.6915042663385
 20
147.2269417060444
 30
0.0
 10
150.7297448514519
 20
147.1607958290915
 30
0.0
  0
SPLINE
  5
78
330
64
100
AcDbEntity
  8
Ebene 2
 62
   250
420
  2301728
370
     5
100
AcDbSpline
210
0.0
220
0.0
230
1.0
 70
     8
 71
     3
 72
    32
 73
    28
 74
     0
 42
0.0000000001
 43
0.0000000001
 40
0.0
 40
0.0
 40
0.0
 40
0.0
 40
1.0
 40
1.0
 40
1.0
 40
2.0
 40
2.0
 40
2.0
 40
3.0
 40
3.0
 40
3.0
 40
4.0
 40
4.0
 40
4.0
 40
5.0
 40
5.0
 40
5.0
 40
6.0
 40
6.0
 40
6.0
 40
7.0
 40
7.0
 40
7.0
 40
8.0
 40
8.0
 40
8.0
 40
9.0
 40
9.0
 40
9.0
 40
9.0
 10
166.698289724268
 20
151.7848060398277
 30
0.0
 10
166.6665948248948
 20
151.8395830941793
 30
0.0
 10
166.1570648664922
 20
151.4010221495907
 30
0.0
 10
166.1264034964464
 20
151.4547656746149
 30
0.0
 10
166.0943640872973
 20
151.5098872387423
 30
0.0
 10
167.7035692500412
 20
153.4162320831104
 30
0.0
 10
167.6770419973049
 20
153.4623963930671
 30
0.0
 10
167.6460361174833
 20
153.5157954083155
 30
0.0
 10
166.7447985440005
 20
152.865877716276
 30
0.0
 10
166.7196493303674
 20
152.9096304578022
 30
0.0
 10
166.6920885483037
 20
152.9573450617499
 30
0.0
 10
168.0625484364209
 20
154.7789405012722
 30
0.0
 10
168.0322315761508
 20
154.8314782420811
 30
0.0
 10
168.0050153038629
 20
154.8786760813652
 30
0.0
 10
166.9632177418553
 20
154.1502101604441
 30
0.0
 10
166.9353124500158
 20
154.1982692741677
 30
0.0
 10
166.9101632363827
 20
154.2418497608059
 30
0.0
 10
167.8703119815266
 20
156.0153860866046
 30
0.0
 10
167.8448182581177
 20
156.0594833379065
 30
0.0
 10
167.817257476054
 20
156.1070256869664
 30
0.0
 10
167.237447523389
 20
155.6576126844403
 30
0.0
 10
167.2150543879623
 20
155.6960255244416
 30
0.0
 10
167.200240467603
 20
155.7216915027384
 30
0.0
 10
167.3814526096718
 20
157.0828496269091
 30
0.0
 10
167.362504572003
 20
157.1157503104976
 30
0.0
 10
167.3545808471597
 20
157.1298752113052
 30
0.0
 10
166.7782159922527
 20
156.7552208301269
 30
0.0
 10
166.7682252087546
 20
156.7726185738046
 30
0.0
  0
SPLINE
  5
79
330
64
100
AcDbEntity
  8
Ebene 2
 62
   250
420
  2301728
370
     5
100
AcDbSpline
210
0.0
220
0.0
230
1.0
 70
     8
 71
     3
 72
    62
 73
    58
 74
     0
 42
0.0000000001
 43
0.0000000001
 40
0.0
 40
0.0
 40
0.0
 40
0.0
 40
1.0
 40
1.0
 40
1.0
 40
2.0
 40
2.0
 40
2.0
 40
3.0
 40
3.0
 40
3.0
 40
4.0
 40
4.0
 40
4.0
 40
5.0
 40
5.0
 40
5.0
 40
6.0
 40
6.0
 40
6.0
 40
7.0
 40
7.0
 40
7.0
 40
8.0
 40
8.0
 40
8.0
 40
9.0
 40
9.0
 40
9.0
 40
10.0
 40
10.0
 40
10.0
 40
11.0
 40
11.0
 40
11.0
 40
12.0
 40
12.0
 40
12.0
 40
13.0
 40
13.0
 40
13.0
 40
14.0
 40
14.0
 40
14.0
 40
15.0
 40
15.0
 40
15.0
 40
16.0
 40
16.0
 40
16.0
 40
17.0
 40
17.0
 40
17.0
 40
18.0
 40
18.0
 40
18.0
 40
19.0
 40
19.0
 40
19.0
 40
19.0
 10
161.8882442346019
 20
157.3324469594734
 30
0.0
 10
161.8989240376516
 20
157.3141879413562
 30
0.0
 10
161.9099483504771
 20
157.3744771521205
 30
0.0
 10
161.9230397219573
 20
157.3524285264695
 30
0.0
 10
161.9430212889535
 20
157.3174607842262
 30
0.0
 10
160.9756378385179
 20
155.6195443542148
 30
0.0
 10
160.997341954393
 20
155.5816482788773
 30
0.0
 10
161.0428172447981
 20
155.5034445597715
 30
0.0
 10
163.5846103706222
 20
157.1667377573154
 30
0.0
 10
163.6242289948388
 20
157.098180311932
 30
0.0
 10
163.6676372265891
 20
157.0230771808084
 30
0.0
 10
161.1165423368185
 20
154.4588909195575
 30
0.0
 10
161.1654627249816
 20
154.3746582793754
 30
0.0
 10
161.2130050740414
 20
154.2919759331843
 30
0.0
 10
163.3989196014681
 20
155.7554534607664
 30
0.0
 10
163.4385382256847
 20
155.6870682702709
 30
0.0
 10
163.4716111641611
 20
155.6298796474887
 30
0.0
 10
161.5836975927981
 20
153.6327564771983
 30
0.0
 10
161.6222826876873
 20
153.565749325806
 30
0.0
 10
161.6557001359395
 20
153.508216193248
 30
0.0
 10
163.3692917607496
 20
154.662668451941
 30
0.0
 10
163.407532345863
 20
154.5963503201002
 30
0.0
 10
163.4371601865815
 20
154.5446738537308
 30
0.0
 10
161.5475240663395
 20
152.3566922676493
 30
0.0
 10
161.5857646514529
 20
152.2903741358085
 30
0.0
 10
161.6288283734274
 20
152.2157877693487
 30
0.0
 10
163.3682582314223
 20
153.3947002221232
 30
0.0
 10
163.4009866601229
 20
153.3383728737805
 30
0.0
 10
163.4371601865815
 20
153.2756720945856
 30
0.0
 10
161.2495231102758
 20
151.0124151224927
 30
0.0
 10
161.2825960487523
 20
150.9552264997105
 30
0.0
 10
161.3146354579013
 20
150.8994159160315
 30
0.0
 10
163.4719556739369
 20
152.2984701155397
 30
0.0
 10
163.5064066515165
 20
152.238869924327
 30
0.0
 10
163.5418911584235
 20
152.1775471842353
 30
0.0
 10
162.1648855845662
 20
150.2558716548443
 30
0.0
 10
162.1921018568541
 20
150.209018325336
 30
0.0
 10
162.2299979321917
 20
150.1428724483831
 30
0.0
 10
163.982174651891
 20
151.3293641162251
 30
0.0
 10
164.0197262174528
 20
151.2642517685996
 30
0.0
 10
164.0490095483955
 20
151.2132643217818
 30
0.0
 10
162.5727851591089
 20
149.3277623188494
 30
0.0
 10
162.6086141757917
 20
149.2657505592061
 30
0.0
 10
162.6458212315777
 20
149.2009827213564
 30
0.0
 10
164.3656140323522
 20
150.3475112552061
 30
0.0
 10
164.3948973632948
 20
150.296868318164
 30
0.0
 10
164.4117783423088
 20
150.2675849872213
 30
0.0
 10
163.9563364187063
 20
148.7210806036723
 30
0.0
 10
163.9766624954783
 20
148.6862851163169
 30
0.0
 10
164.0300615107267
 20
148.593267476852
 30
0.0
 10
166.2866005421916
 20
150.1201348031806
 30
0.0
 10
166.3300087739419
 20
150.045031672057
 30
0.0
 10
166.3589475951088
 20
149.9947332447908
 30
0.0
 10
165.1218129902248
 20
148.4148114129895
 30
0.0
 10
165.148340242961
 20
148.3689916128087
 30
0.0
 10
165.1652212219751
 20
148.3393637720902
 30
0.0
 10
165.6037821665636
 20
148.6673370786481
 30
0.0
 10
165.6189405966986
 20
148.6408098259118
 30
0.0
  0
SPLINE
  5
7A
330
64
100
AcDbEntity
  8
Ebene 2
 62
   250
420
  2301728
370
     5
100
AcDbSpline
210
0.0
220
0.0
230
1.0
 70
     8
 71
     3
 72
    26
 73
    22
 74
     0
 42
0.0000000001
 43
0.0000000001
 40
0.0
 40
0.0
 40
0.0
 40
0.0
 40
1.0
 40
1.0
 40
1.0
 40
2.0
 40
2.0
 40
2.0
 40
3.0
 40
3.0
 40
3.0
 40
4.0
 40
4.0
 40
4.0
 40
5.0
 40
5.0
 40
5.0
 40
6.0
 40
6.0
 40
6.0
 40
7.0
 40
7.0
 40
7.0
 40
7.0
 10
178.0667678157658
 20
154.4022190614391
 30
0.0
 10
178.0746915406091
 20
154.388783180183
 30
0.0
 10
178.5707856177556
 20
154.7069379581308
 30
0.0
 10
178.5766422839441
 20
154.6966026648569
 30
0.0
 10
178.60730365399
 20
154.6437204142722
 30
0.0
 10
177.4246015936817
 20
153.0288308402276
 30
0.0
 10
177.4531959050728
 20
152.9790491776251
 30
0.0
 10
177.4807566871365
 20
152.9313345736773
 30
0.0
 10
178.5649289515671
 20
153.6901173548684
 30
0.0
 10
178.5952458118371
 20
153.6382686336111
 30
0.0
 10
178.6269407112104
 20
153.5829748145958
 30
0.0
 10
177.0291043710677
 20
151.8767901499652
 30
0.0
 10
177.0645888779747
 20
151.8151229000977
 30
0.0
 10
177.0949057382448
 20
151.7627574141767
 30
0.0
 10
178.3885399463594
 20
152.6459082244302
 30
0.0
 10
178.4174787675263
 20
152.5961265618276
 30
0.0
 10
178.4595089601734
 20
152.5232627442468
 30
0.0
 10
175.6093795850117
 20
149.7480642453207
 30
0.0
 10
175.6610560513811
 20
149.6584917036137
 30
0.0
 10
175.6989521267187
 20
149.5926903364366
 30
0.0
 10
178.105352910655
 20
151.1564202087754
 30
0.0
 10
178.1429044762168
 20
151.09130786115
 30
0.0
  0
SPLINE
  5
7B
330
64
100
AcDbEntity
  8
Ebene 2
 62
   250
420
  2301728
370
     5
100
AcDbSpline
210
0.0
220
0.0
230
1.0
 70
     8
 71
     3
 72
     8
 73
     4
 74
     0
 42
0.0000000001
 43
0.0000000001
 40
0.0
 40
0.0
 40
0.0
 40
0.0
 40
1.0
 40
1.0
 40
1.0
 40
1.0
 10
172.936672744385
 20
153.0848136787945
 30
0.0
 10
172.9986845040283
 20
152.977498883634
 30
0.0
 10
175.8312438806244
 20
154.868857552755
 30
0.0
 10
175.8801642687875
 20
154.7841081479091
 30
0.0
  0
SPLINE
  5
7C
330
64
100
AcDbEntity
  8
Ebene 2
 62
   250
420
  2301728
370
     5
100
AcDbSpline
210
0.0
220
0.0
230
1.0
 70
     8
 71
     3
 72
    20
 73
    16
 74
     0
 42
0.0000000001
 43
0.0000000001
 40
0.0
 40
0.0
 40
0.0
 40
0.0
 40
1.0
 40
1.0
 40
1.0
 40
2.0
 40
2.0
 40
2.0
 40
3.0
 40
3.0
 40
3.0
 40
4.0
 40
4.0
 40
4.0
 40
5.0
 40
5.0
 40
5.0
 40
5.0
 10
173.8771844323086
 20
157.5897957619931
 30
0.0
 10
173.8995775677353
 20
157.551038412216
 30
0.0
 10
174.305754593399
 20
157.8788394638861
 30
0.0
 10
174.3236691017404
 20
157.8476613291765
 30
0.0
 10
174.339516551427
 20
157.8206173117765
 30
0.0
 10
174.7026298551162
 20
156.7596994572122
 30
0.0
 10
174.7146876972691
 20
156.7386843608887
 30
0.0
 10
174.7363918131442
 20
156.7011327953269
 30
0.0
 10
175.2734825536104
 20
157.1231572706772
 30
0.0
 10
175.3003543161226
 20
157.0768207058326
 30
0.0
 10
175.3248145102041
 20
157.0344460034097
 30
0.0
 10
174.4349457593226
 20
155.3211988883753
 30
0.0
 10
174.4590614436283
 20
155.2793409506161
 30
0.0
 10
174.4945459505353
 20
155.2178459556365
 30
0.0
 10
176.0134895520206
 20
156.2579209687651
 30
0.0
 10
176.0486295491518
 20
156.1971149933371
 30
0.0
  0
SPLINE
  5
7D
330
64
100
AcDbEntity
  8
Ebene 2
 62
   250
420
  2301728
370
     5
100
AcDbSpline
210
0.0
220
0.0
230
1.0
 70
     8
 71
     3
 72
    74
 73
    70
 74
     0
 42
0.0000000001
 43
0.0000000001
 40
0.0
 40
0.0
 40
0.0
 40
0.0
 40
1.0
 40
1.0
 40
1.0
 40
2.0
 40
2.0
 40
2.0
 40
3.0
 40
3.0
 40
3.0
 40
4.0
 40
4.0
 40
4.0
 40
5.0
 40
5.0
 40
5.0
 40
6.0
 40
6.0
 40
6.0
 40
7.0
 40
7.0
 40
7.0
 40
8.0
 40
8.0
 40
8.0
 40
9.0
 40
9.0
 40
9.0
 40
10.0
 40
10.0
 40
10.0
 40
11.0
 40
11.0
 40
11.0
 40
12.0
 40
12.0
 40
12.0
 40
13.0
 40
13.0
 40
13.0
 40
14.0
 40
14.0
 40
14.0
 40
15.0
 40
15.0
 40
15.0
 40
16.0
 40
16.0
 40
16.0
 40
17.0
 40
17.0
 40
17.0
 40
18.0
 40
18.0
 40
18.0
 40
19.0
 40
19.0
 40
19.0
 40
20.0
 40
20.0
 40
20.0
 40
21.0
 40
21.0
 40
21.0
 40
22.0
 40
22.0
 40
22.0
 40
23.0
 40
23.0
 40
23.0
 40
23.0
 10
172.3358476953965
 20
158.9440636906479
 30
0.0
 10
172.3472165179978
 20
158.9244266334275
 30
0.0
 10
172.4319659228437
 20
159.0313969188122
 30
0.0
 10
172.4457463138755
 20
159.0076257442823
 30
0.0
 10
172.4757186643698
 20
158.955604768137
 30
0.0
 10
170.5461194101354
 20
156.7495364188262
 30
0.0
 10
170.5785033290603
 20
156.6932090704836
 30
0.0
 10
170.6367254811698
 20
156.5926122159511
 30
0.0
 10
174.0115432448691
 20
158.7926516441854
 30
0.0
 10
174.0625306916869
 20
158.7046293964695
 30
0.0
 10
174.1238534317786
 20
158.5980036208606
 30
0.0
 10
170.1582014025889
 20
155.3060404582403
 30
0.0
 10
170.227447867524
 20
155.1863233111511
 30
0.0
 10
170.2811913925482
 20
155.0929611619104
 30
0.0
 10
172.8264296161303
 20
156.7900163174823
 30
0.0
 10
172.870871377208
 20
156.7126738728161
 30
0.0
 10
172.9125570600793
 20
156.6404990747868
 30
0.0
 10
170.3442366815189
 20
154.2938707369512
 30
0.0
 10
170.3931570696819
 20
154.2092935869932
 30
0.0
 10
170.4296751059163
 20
154.1459037882467
 30
0.0
 10
172.4112953362959
 20
155.4717496603983
 30
0.0
 10
172.453325528943
 20
155.3987135879295
 30
0.0
 10
172.4894990554016
 20
155.3363573185104
 30
0.0
 10
170.0148853358577
 20
152.8438290906251
 30
0.0
 10
170.0613941555902
 20
152.7632138030888
 30
0.0
 10
170.1203053272514
 20
152.6612389094531
 30
0.0
 10
172.8274631454576
 20
154.4637140564187
 30
0.0
 10
172.8722494163111
 20
154.3860271019766
 30
0.0
 10
172.9242703924564
 20
154.295765540718
 30
0.0
 10
169.4361089125202
 20
151.3521017614277
 30
0.0
 10
169.48365126158
 20
151.2697639250124
 30
0.0
 10
169.5666781175469
 20
151.1254143289538
 30
0.0
 10
175.7568297690525
 20
155.0981288085473
 30
0.0
 10
175.8464023107595
 20
154.9432716643269
 30
0.0
 10
175.9535448510321
 20
154.7575808951728
 30
0.0
 10
170.0679398413303
 20
150.5252782995169
 30
0.0
 10
170.1502776777456
 20
150.3833402718888
 30
0.0
 10
170.1874847335316
 20
150.3185724340392
 30
0.0
 10
171.9048659658755
 20
151.4823264566786
 30
0.0
 10
171.9420730216615
 20
151.4175586188289
 30
0.0
 10
171.9748014503622
 20
151.3610590155984
 30
0.0
 10
170.2281368870756
 20
149.3370640827959
 30
0.0
 10
170.2681000210679
 20
149.2678176178609
 30
0.0
 10
170.3035845279749
 20
149.2064948777691
 30
0.0
 10
171.9003873387902
 20
150.2737861631857
 30
0.0
 10
171.9279481208539
 20
150.2262438141258
 30
0.0
 10
171.94792968785
 20
150.1911038169946
 30
0.0
 10
171.1572797523978
 20
148.4657988598074
 30
0.0
 10
171.180706417152
 20
148.4254912160392
 30
0.0
 10
171.2089562187672
 20
148.3765708278762
 30
0.0
 10
171.7577602916105
 20
148.8116866747067
 30
0.0
 10
171.7804979368131
 20
148.7717235407144
 30
0.0
 10
171.7997904842577
 20
148.7386506022379
 30
0.0
 10
171.3126536612819
 20
147.5263207012112
 30
0.0
 10
171.3302236598475
 20
147.4956593311654
 30
0.0
 10
171.3636411080997
 20
147.4381261986074
 30
0.0
 10
172.7092962923596
 20
148.3610678879653
 30
0.0
 10
172.7392686428538
 20
148.3093914215959
 30
0.0
 10
172.7554606023162
 20
148.2818306395322
 30
0.0
 10
172.3882131813176
 20
146.9062031047781
 30
0.0
 10
172.4071612189863
 20
146.8734746760775
 30
0.0
 10
172.493977682487
 20
146.7232684138303
 30
0.0
 10
176.6322291093505
 20
149.4648772096163
 30
0.0
 10
176.6980304765276
 20
149.3511889836035
 30
0.0
 10
176.7352375323136
 20
149.2867656555296
 30
0.0
 10
174.613401823185
 20
147.2131613150125
 30
0.0
 10
174.6543984865047
 20
147.1421923011985
 30
0.0
 10
174.6761026023799
 20
147.1046407356367
 30
0.0
 10
175.2514339279595
 20
147.5445797193284
 30
0.0
 10
175.2765831415926
 20
147.5011714875781
 30
0.0
  0
SPLINE
  5
7E
330
64
100
AcDbEntity
  8
Ebene 2
 62
   250
420
  2301728
370
     5
100
AcDbSpline
210
0.0
220
0.0
230
1.0
 70
    11
 71
     3
 72
   146
 73
   142
 74
     0
 42
0.0000000001
 43
0.0000000001
 40
0.0
 40
0.0
 40
0.0
 40
0.0
 40
1.0
 40
1.0
 40
1.0
 40
2.0
 40
2.0
 40
2.0
 40
3.0
 40
3.0
 40
3.0
 40
4.0
 40
4.0
 40
4.0
 40
5.0
 40
5.0
 40
5.0
 40
6.0
 40
6.0
 40
6.0
 40
7.0
 40
7.0
 40
7.0
 40
8.0
 40
8.0
 40
8.0
 40
9.0
 40
9.0
 40
9.0
 40
10.0
 40
10.0
 40
10.0
 40
11.0
 40
11.0
 40
11.0
 40
12.0
 40
12.0
 40
12.0
 40
13.0
 40
13.0
 40
13.0
 40
14.0
 40
14.0
 40
14.0
 40
15.0
 40
15.0
 40
15.0
 40
16.0
 40
16.0
 40
16.0
 40
17.0
 40
17.0
 40
17.0
 40
18.0
 40
18.0
 40
18.0
 40
19.0
 40
19.0
 40
19.0
 40
20.0
 40
20.0
 40
20.0
 40
21.0
 40
21.0
 40
21.0
 40
22.0
 40
22.0
 40
22.0
 40
23.0
 40
23.0
 40
23.0
 40
24.0
 40
24.0
 40
24.0
 40
25.0
 40
25.0
 40
25.0
 40
26.0
 40
26.0
 40
26.0
 40
27.0
 40
27.0
 40
27.0
 40
28.0
 40
28.0
 40
28.0
 40
29.0
 40
29.0
 40
29.0
 40
30.0
 40
30.0
 40
30.0
 40
31.0
 40
31.0
 40
31.0
 40
32.0
 40
32.0
 40
32.0
 40
33.0
 40
33.0
 40
33.0
 40
34.0
 40
34.0
 40
34.0
 40
35.0
 40
35.0
 40
35.0
 40
36.0
 40
36.0
 40
36.0
 40
37.0
 40
37.0
 40
37.0
 40
38.0
 40
38.0
 40
38.0
 40
39.0
 40
39.0
 40
39.0
 40
40.0
 40
40.0
 40
40.0
 40
41.0
 40
41.0
 40
41.0
 40
42.0
 40
42.0
 40
42.0
 40
43.0
 40
43.0
 40
43.0
 40
44.0
 40
44.0
 40
44.0
 40
45.0
 40
45.0
 40
45.0
 40
46.0
 40
46.0
 40
46.0
 40
47.0
 40
47.0
 40
47.0
 40
47.0
 10
163.2297653015522
 20
124.8803150990259
 30
0.0
 10
163.5315558651496
 20
124.8803150990259
 30
0.0
 10
163.8591846619318
 20
124.9709211700603
 30
0.0
 10
164.2043834572796
 20
125.1483437045953
 30
0.0
 10
164.6202067566655
 20
125.3636623144679
 30
0.0
 10
165.0060577055572
 20
125.6875015037163
 30
0.0
 10
165.3519455204566
 20
126.1122820572729
 30
0.0
 10
165.7119582361636
 20
126.5570441778258
 30
0.0
 10
165.8948929271114
 20
127.0645070775736
 30
0.0
 10
165.8948929271114
 20
127.619856836157
 30
0.0
 10
165.8948929271114
 20
127.8434436806487
 30
0.0
 10
165.9007495932999
 20
128.2599559995863
 30
0.0
 10
165.9134964550043
 20
128.8673267343149
 30
0.0
 10
165.9255542971572
 20
129.4791760961289
 30
0.0
 10
165.9379566490859
 20
130.1961009395608
 30
0.0
 10
165.9507035107903
 20
131.0191347939378
 30
0.0
 10
165.963105862719
 20
131.8411351189874
 30
0.0
 10
165.981709390612
 20
132.7313483796447
 30
0.0
 10
166.0065140944693
 20
133.6904635954613
 30
0.0
 10
166.0309742885508
 20
134.6237405780931
 30
0.0
 10
166.0623246781483
 20
135.5790661863759
 30
0.0
 10
166.1002207534859
 20
136.5292241480217
 30
0.0
 10
166.1391503581508
 20
137.4924734811478
 30
0.0
 10
166.1815250605738
 20
138.3530589010866
 30
0.0
 10
166.2307899585126
 20
139.1605898155528
 30
0.0
 10
166.2800548564515
 20
139.9681207300191
 30
0.0
 10
166.3424111258706
 20
140.6423263612522
 30
0.0
 10
166.4175142569941
 20
141.1742494550815
 30
0.0
 10
166.4509317052464
 20
141.5769813829872
 30
0.0
 10
166.2755762293661
 20
141.8946193962713
 30
0.0
 10
165.9114293963496
 20
142.0930570271298
 30
0.0
 10
165.6203186358018
 20
142.2508425044445
 30
0.0
 10
165.2913117999165
 20
142.3314577919808
 30
0.0
 10
164.9299210451063
 20
142.331113282205
 30
0.0
 10
164.9299210451063
 20
142.331113282205
 30
0.0
 10
164.844138110933
 20
142.3297352431018
 30
0.0
 10
164.844138110933
 20
142.3297352431018
 30
0.0
 10
164.4562201033866
 20
142.3149213227426
 30
0.0
 10
164.0910397410426
 20
142.2167360366407
 30
0.0
 10
163.7585878073993
 20
142.0375909532267
 30
0.0
 10
163.3779045051445
 20
141.8301960681974
 30
0.0
 10
163.1770553058554
 20
141.5139360940165
 30
0.0
 10
163.1770553058554
 20
141.1294631842279
 30
0.0
 10
163.1770553058554
 20
141.1294631842279
 30
0.0
 10
163.1494945237917
 20
140.3563832473413
 30
0.0
 10
163.1494945237917
 20
140.3563832473413
 30
0.0
 10
163.1346806034325
 20
140.2275365911936
 30
0.0
 10
163.1143545266605
 20
140.079741897377
 30
0.0
 10
163.0867937445968
 20
139.9078315192547
 30
0.0
 10
163.0240929654019
 20
139.5226695899146
 30
0.0
 10
162.9496788538299
 20
139.0882427626356
 30
0.0
 10
162.8628623903293
 20
138.6038620178662
 30
0.0
 10
162.7760459268286
 20
138.1212038219758
 30
0.0
 10
162.6702814256592
 20
137.6230426861746
 30
0.0
 10
162.5486694748031
 20
137.1235035112701
 30
0.0
 10
162.4232679164134
 20
136.6136290430918
 30
0.0
 10
162.2930432211624
 20
136.1475073164396
 30
0.0
 10
162.1607514672567
 20
135.7389187223453
 30
0.0
 10
162.0298377524541
 20
135.3341197357848
 30
0.0
 10
161.8975459985484
 20
135.0095915269848
 30
0.0
 10
161.7686993424006
 20
134.7739468403402
 30
0.0
 10
161.7204679737892
 20
134.6860968475122
 30
0.0
 10
161.6798158202452
 20
134.6378654789007
 30
0.0
 10
161.6588007239217
 20
134.613749794595
 30
0.0
 10
161.6308954320822
 20
134.6829962595301
 30
0.0
 10
161.5843866123497
 20
134.8593852647377
 30
0.0
 10
161.5750848484032
 20
135.2734860152447
 30
0.0
 10
161.5630270062503
 20
135.8264242053975
 30
0.0
 10
161.5881762198835
 20
136.5099316005771
 30
0.0
 10
161.6494989599751
 20
137.3054046728905
 30
0.0
 10
161.7115107196185
 20
138.1143136264599
 30
0.0
 10
161.7800681650019
 20
138.9804112028115
 30
0.0
 10
161.8551712961255
 20
139.9026638726178
 30
0.0
 10
161.9261403099395
 20
140.7763406640369
 30
0.0
 10
161.9891855989102
 20
141.6455388283706
 30
0.0
 10
162.0422401043828
 20
142.4813195444521
 30
0.0
 10
162.0660112789127
 20
142.7524487380037
 30
0.0
 10
161.9847069718248
 20
143.1245192958636
 30
0.0
 10
161.4593295637357
 20
143.3556853554228
 30
0.0
 10
161.1823437039956
 20
143.476952796503
 30
0.0
 10
160.8805531403981
 20
143.5389645561464
 30
0.0
 10
160.5636041466656
 20
143.5389645561464
 30
0.0
 10
160.4781657222682
 20
143.5389645561464
 30
0.0
 10
160.3916937685433
 20
143.534485929061
 30
0.0
 10
160.3024657366121
 20
143.5255286748903
 30
0.0
 10
159.8890540056567
 20
143.4841875017948
 30
0.0
 10
159.503203056765
 20
143.3436275132699
 30
0.0
 10
159.1566262223141
 20
143.1079828266253
 30
0.0
 10
158.7759429200593
 20
142.8496004947782
 30
0.0
 10
158.5682035252542
 20
142.4482466059757
 30
0.0
 10
158.5396092138631
 20
141.9056437090967
 30
0.0
 10
158.5396092138631
 20
141.2335051365184
 30
0.0
 10
158.5268623521587
 20
140.5007328434
 30
0.0
 10
158.5020576483014
 20
139.7269638869618
 30
0.0
 10
158.477252944444
 20
138.9662863020038
 30
0.0
 10
158.4641615729638
 20
138.2152549907682
 30
0.0
 10
158.4641615729638
 20
137.4928179909236
 30
0.0
 10
158.4641615729638
 20
136.7693474617516
 30
0.0
 10
158.477252944444
 20
136.0861845763478
 30
0.0
 10
158.5020576483014
 20
135.4629663919326
 30
0.0
 10
158.5268623521587
 20
134.8332025217772
 30
0.0
 10
158.5785388185281
 20
134.3160933483071
 30
0.0
 10
158.6567425376338
 20
133.927486321209
 30
0.0
 10
158.7397693936007
 20
133.5109740022715
 30
0.0
 10
158.9227040845485
 20
133.1375254053084
 30
0.0
 10
159.2000344540644
 20
132.8191983724728
 30
0.0
 10
159.4708191378402
 20
132.5070725156014
 30
0.0
 10
159.7819114653841
 20
132.2655711627683
 30
0.0
 10
160.1243541825255
 20
132.1012399997136
 30
0.0
 10
160.4251112167956
 20
131.956890403655
 30
0.0
 10
160.7410266812007
 20
131.8835098214104
 30
0.0
 10
161.0631433215701
 20
131.8835098214104
 30
0.0
 10
161.1175758661459
 20
131.8835098214104
 30
0.0
 10
161.1713193911701
 20
131.8862658996167
 30
0.0
 10
161.2257519357459
 20
131.8900555071505
 30
0.0
 10
161.6233162170147
 20
131.9189943283174
 30
0.0
 10
161.9740271687752
 20
132.0829809815964
 30
0.0
 10
162.2720281248388
 20
132.3802929181085
 30
0.0
 10
162.46943222637
 20
132.5883768226893
 30
0.0
 10
162.6496108391114
 20
132.817131313818
 30
0.0
 10
162.8115304337356
 20
133.0644893328397
 30
0.0
 10
162.7881037689815
 20
132.6038797626002
 30
0.0
 10
162.7663996531063
 20
132.1456817607913
 30
0.0
 10
162.746762595886
 20
131.6885172883098
 30
0.0
 10
162.7092110303242
 20
130.8248312803888
 30
0.0
 10
162.6651137790223
 20
130.0152333072677
 30
0.0
 10
162.6161933908592
 20
129.2824610141493
 30
0.0
 10
162.5662394733688
 20
128.5345302908958
 30
0.0
 10
162.5231757513942
 20
127.8606691694385
 30
0.0
 10
162.4859686956082
 20
127.2622556888806
 30
0.0
 10
162.4480726202707
 20
126.66487573765
 30
0.0
 10
162.4163777208974
 20
126.2052996967379
 30
0.0
 10
162.3929510561433
 20
125.8917958007634
 30
0.0
 10
162.2995889069025
 20
125.099767826208
 30
0.0
 10
162.7856922005509
 20
124.9330250947227
 30
0.0
 10
163.0006663006477
 20
124.8982296073673
 30
0.0
 10
163.0750804122197
 20
124.886860784766
 30
0.0
 10
163.1515615824464
 20
124.8803150990259
 30
0.0
 10
163.2297653015522
 20
124.8803150990259
 30
0.0
 10
163.2297653015522
 20
124.8803150990259
 30
0.0
 10
163.2297653015522
 20
124.8803150990259
 30
0.0
 10
163.2297653015522
 20
124.8803150990259
 30
0.0
  0
SPLINE
  5
7F
330
64
100
AcDbEntity
  8
Ebene 2
 62
   250
420
  2301728
370
     5
100
AcDbSpline
210
0.0
220
0.0
230
1.0
 70
    11
 71
     3
 72
    47
 73
    43
 74
     0
 42
0.0000000001
 43
0.0000000001
 40
0.0
 40
0.0
 40
0.0
 40
0.0
 40
1.0
 40
1.0
 40
1.0
 40
2.0
 40
2.0
 40
2.0
 40
3.0
 40
3.0
 40
3.0
 40
4.0
 40
4.0
 40
4.0
 40
5.0
 40
5.0
 40
5.0
 40
6.0
 40
6.0
 40
6.0
 40
7.0
 40
7.0
 40
7.0
 40
8.0
 40
8.0
 40
8.0
 40
9.0
 40
9.0
 40
9.0
 40
10.0
 40
10.0
 40
10.0
 40
11.0
 40
11.0
 40
11.0
 40
12.0
 40
12.0
 40
12.0
 40
13.0
 40
13.0
 40
13.0
 40
14.0
 40
14.0
 40
14.0
 40
14.0
 10
171.248230333208
 20
132.8612285651199
 30
0.0
 10
170.2663774721889
 20
132.8612285651199
 30
0.0
 10
169.4674593021176
 20
133.121333445846
 30
0.0
 10
168.8742134681966
 20
133.6346530117823
 30
0.0
 10
168.2919919471011
 20
134.1372927746689
 30
0.0
 10
167.8816808041279
 20
134.7687791937033
 30
0.0
 10
167.6560269009814
 20
135.5115422703198
 30
0.0
 10
167.435196134696
 20
136.2388024070255
 30
0.0
 10
167.3690502577432
 20
137.0404766553032
 30
0.0
 10
167.4593118190018
 20
137.8934828601745
 30
0.0
 10
167.5499178900361
 20
138.7437329868395
 30
0.0
 10
167.7724712052005
 20
139.5340384125159
 30
0.0
 10
168.1200815689788
 20
140.2423505115528
 30
0.0
 10
168.4718260500667
 20
140.9578973158815
 30
0.0
 10
168.9410483647011
 20
141.5590668746458
 30
0.0
 10
169.5153461609533
 20
142.0293227186075
 30
0.0
 10
170.0534704307469
 20
142.4696062120751
 30
0.0
 10
170.6884019475392
 20
142.692848546791
 30
0.0
 10
171.4025707127647
 20
142.692848546791
 30
0.0
 10
171.4807744318704
 20
142.692848546791
 30
0.0
 10
171.5596671705277
 20
142.6904369783604
 30
0.0
 10
171.6392489287367
 20
142.6849248219476
 30
0.0
 10
172.5635686571978
 20
142.6311812969234
 30
0.0
 10
173.3314809474475
 20
142.34627171234
 30
0.0
 10
173.9212816836105
 20
141.8381197930407
 30
0.0
 10
174.5010916362754
 20
141.3365135594815
 30
0.0
 10
174.9282837582627
 20
140.7088167479808
 30
0.0
 10
175.1918337367468
 20
139.9729438668802
 30
0.0
 10
175.4515941076971
 20
139.2449947106229
 30
0.0
 10
175.5635597848308
 20
138.4629575195656
 30
0.0
 10
175.5242856703901
 20
137.6488809193593
 30
0.0
 10
175.4850115559493
 20
136.8337707898255
 30
0.0
 10
175.294497649934
 20
136.0644804604727
 30
0.0
 10
174.9572225794296
 20
135.3620250276243
 30
0.0
 10
174.6168469209429
 20
134.6554354774663
 30
0.0
 10
174.1324661761736
 20
134.0587445457874
 30
0.0
 10
173.51648269705
 20
133.5874551724982
 30
0.0
 10
172.8880968659978
 20
133.1058305059352
 30
0.0
 10
172.1250077126093
 20
132.8612285651199
 30
0.0
 10
171.248230333208
 20
132.8612285651199
 30
0.0
 10
171.248230333208
 20
132.8612285651199
 30
0.0
 10
171.248230333208
 20
132.8612285651199
 30
0.0
 10
171.248230333208
 20
132.8612285651199
 30
0.0
  0
SPLINE
  5
80
330
64
100
AcDbEntity
  8
Ebene 2
 62
   250
420
  2301728
370
     5
100
AcDbSpline
210
0.0
220
0.0
230
1.0
 70
    11
 71
     3
 72
    47
 73
    43
 74
     0
 42
0.0000000001
 43
0.0000000001
 40
0.0
 40
0.0
 40
0.0
 40
0.0
 40
1.0
 40
1.0
 40
1.0
 40
2.0
 40
2.0
 40
2.0
 40
3.0
 40
3.0
 40
3.0
 40
4.0
 40
4.0
 40
4.0
 40
5.0
 40
5.0
 40
5.0
 40
6.0
 40
6.0
 40
6.0
 40
7.0
 40
7.0
 40
7.0
 40
8.0
 40
8.0
 40
8.0
 40
9.0
 40
9.0
 40
9.0
 40
10.0
 40
10.0
 40
10.0
 40
11.0
 40
11.0
 40
11.0
 40
12.0
 40
12.0
 40
12.0
 40
13.0
 40
13.0
 40
13.0
 40
14.0
 40
14.0
 40
14.0
 40
14.0
 10
171.5104022725889
 20
140.7897765452929
 30
0.0
 10
171.4129060060386
 20
140.7897765452929
 30
0.0
 10
171.2637332731188
 20
140.7563590970407
 30
0.0
 10
171.0959570123061
 20
140.4683489244751
 30
0.0
 10
170.9371380056641
 20
140.1968752211477
 30
0.0
 10
170.8144925254806
 20
139.846508779163
 30
0.0
 10
170.7328437086169
 20
139.4262068526917
 30
0.0
 10
170.6494723428743
 20
138.9979812013771
 30
0.0
 10
170.6070976404513
 20
138.5170455543656
 30
0.0
 10
170.6070976404513
 20
137.9978693222408
 30
0.0
 10
170.6070976404513
 20
137.4807601487707
 30
0.0
 10
170.6553290090628
 20
136.9953458746739
 30
0.0
 10
170.7500691974068
 20
136.555751400758
 30
0.0
 10
170.8430868368717
 20
136.1251141810128
 30
0.0
 10
170.982957805845
 20
135.7561442111351
 30
0.0
 10
171.1669260261201
 20
135.4584877648472
 30
0.0
 10
171.324366993659
 20
135.2018279818791
 30
0.0
 10
171.5107467823647
 20
135.0733258355071
 30
0.0
 10
171.7539706840768
 20
135.0550668173899
 30
0.0
 10
171.7708516630908
 20
135.0536887782867
 30
0.0
 10
171.7849765638985
 20
135.0529997587351
 30
0.0
 10
171.7991014647061
 20
135.0529997587351
 30
0.0
 10
171.8952196921532
 20
135.0529997587351
 30
0.0
 10
172.0399137979876
 20
135.0812495603504
 30
0.0
 10
172.1890865309074
 20
135.3258515011657
 30
0.0
 10
172.3458384788946
 20
135.583889323237
 30
0.0
 10
172.4598712146831
 20
135.9301216479122
 30
0.0
 10
172.5291176796182
 20
136.3559357307962
 30
0.0
 10
172.600431203208
 20
136.7989753024701
 30
0.0
 10
172.6310925732539
 20
137.2930023209618
 30
0.0
 10
172.6193792408768
 20
137.8235473756879
 30
0.0
 10
172.6069768889481
 20
138.3547814499656
 30
0.0
 10
172.5459986586322
 20
138.8529425857669
 30
0.0
 10
172.4392006281354
 20
139.3032168627325
 30
0.0
 10
172.3337806367417
 20
139.7483234930611
 30
0.0
 10
172.1866749624768
 20
140.1259062073337
 30
0.0
 10
172.0030512519774
 20
140.4252852025006
 30
0.0
 10
171.8008240135851
 20
140.7522249797312
 30
0.0
 10
171.625124027929
 20
140.7897765452929
 30
0.0
 10
171.5104022725889
 20
140.7897765452929
 30
0.0
 10
171.5104022725889
 20
140.7897765452929
 30
0.0
 10
171.5104022725889
 20
140.7897765452929
 30
0.0
 10
171.5104022725889
 20
140.7897765452929
 30
0.0
  0
SPLINE
  5
81
330
64
100
AcDbEntity
  8
Ebene 2
 62
   250
420
  2301728
370
     5
100
AcDbSpline
210
0.0
220
0.0
230
1.0
 70
    11
 71
     3
 72
   170
 73
   166
 74
     0
 42
0.0000000001
 43
0.0000000001
 40
0.0
 40
0.0
 40
0.0
 40
0.0
 40
1.0
 40
1.0
 40
1.0
 40
2.0
 40
2.0
 40
2.0
 40
3.0
 40
3.0
 40
3.0
 40
4.0
 40
4.0
 40
4.0
 40
5.0
 40
5.0
 40
5.0
 40
6.0
 40
6.0
 40
6.0
 40
7.0
 40
7.0
 40
7.0
 40
8.0
 40
8.0
 40
8.0
 40
9.0
 40
9.0
 40
9.0
 40
10.0
 40
10.0
 40
10.0
 40
11.0
 40
11.0
 40
11.0
 40
12.0
 40
12.0
 40
12.0
 40
13.0
 40
13.0
 40
13.0
 40
14.0
 40
14.0
 40
14.0
 40
15.0
 40
15.0
 40
15.0
 40
16.0
 40
16.0
 40
16.0
 40
17.0
 40
17.0
 40
17.0
 40
18.0
 40
18.0
 40
18.0
 40
19.0
 40
19.0
 40
19.0
 40
20.0
 40
20.0
 40
20.0
 40
21.0
 40
21.0
 40
21.0
 40
22.0
 40
22.0
 40
22.0
 40
23.0
 40
23.0
 40
23.0
 40
24.0
 40
24.0
 40
24.0
 40
25.0
 40
25.0
 40
25.0
 40
26.0
 40
26.0
 40
26.0
 40
27.0
 40
27.0
 40
27.0
 40
28.0
 40
28.0
 40
28.0
 40
29.0
 40
29.0
 40
29.0
 40
30.0
 40
30.0
 40
30.0
 40
31.0
 40
31.0
 40
31.0
 40
32.0
 40
32.0
 40
32.0
 40
33.0
 40
33.0
 40
33.0
 40
34.0
 40
34.0
 40
34.0
 40
35.0
 40
35.0
 40
35.0
 40
36.0
 40
36.0
 40
36.0
 40
37.0
 40
37.0
 40
37.0
 40
38.0
 40
38.0
 40
38.0
 40
39.0
 40
39.0
 40
39.0
 40
40.0
 40
40.0
 40
40.0
 40
41.0
 40
41.0
 40
41.0
 40
42.0
 40
42.0
 40
42.0
 40
43.0
 40
43.0
 40
43.0
 40
44.0
 40
44.0
 40
44.0
 40
45.0
 40
45.0
 40
45.0
 40
46.0
 40
46.0
 40
46.0
 40
47.0
 40
47.0
 40
47.0
 40
48.0
 40
48.0
 40
48.0
 40
49.0
 40
49.0
 40
49.0
 40
50.0
 40
50.0
 40
50.0
 40
51.0
 40
51.0
 40
51.0
 40
52.0
 40
52.0
 40
52.0
 40
53.0
 40
53.0
 40
53.0
 40
54.0
 40
54.0
 40
54.0
 40
55.0
 40
55.0
 40
55.0
 40
55.0
 10
178.1360142807008
 20
131.2606361467709
 30
0.0
 10
178.211806431376
 20
131.2606361467709
 30
0.0
 10
178.2872540722753
 20
131.2651147738563
 30
0.0
 10
178.3633907327263
 20
131.2737275182511
 30
0.0
 10
178.7616440335467
 20
131.3181692793289
 30
0.0
 10
179.1102879266524
 20
131.502137499604
 30
0.0
 10
179.39485300146
 20
131.8146078662512
 30
0.0
 10
179.8120543399492
 20
132.2324982242919
 30
0.0
 10
180.1813688196027
 20
132.7720005331887
 30
0.0
 10
180.491772127595
 20
133.4176118530307
 30
0.0
 10
180.6299205476893
 20
133.7052775158205
 30
0.0
 10
180.7611787722676
 20
134.0043120012116
 30
0.0
 10
180.8848577817785
 20
134.3109257016702
 30
0.0
 10
180.8917479772944
 20
134.2716515872294
 30
0.0
 10
180.8986381728103
 20
134.2327219825644
 30
0.0
 10
180.9062173878778
 20
134.1951704170027
 30
0.0
 10
180.9878662047415
 20
133.7318047685568
 30
0.0
 10
181.1614991317428
 20
133.3232161744626
 30
0.0
 10
181.4219485222447
 20
132.9807734573212
 30
0.0
 10
181.683431442074
 20
132.6383307401798
 30
0.0
 10
181.9886671034294
 20
132.3754697812473
 30
0.0
 10
182.3297317814676
 20
132.1990807760397
 30
0.0
 10
182.6707964595058
 20
132.020969221953
 30
0.0
 10
183.0311536849886
 20
131.9169272696626
 30
0.0
 10
183.4008126744179
 20
131.8900555071505
 30
0.0
 10
183.4497330625809
 20
131.8862658996167
 30
0.0
 10
183.4983089409682
 20
131.8845433507378
 30
0.0
 10
183.5458512900281
 20
131.8845433507378
 30
0.0
 10
183.8824373409809
 20
131.8845433507378
 30
0.0
 10
184.194907707628
 20
131.9751494217722
 30
0.0
 10
184.470515528265
 20
132.1515384269798
 30
0.0
 10
184.9514511752764
 20
132.4447162461823
 30
0.0
 10
185.3889785905376
 20
132.9142830705925
 30
0.0
 10
185.7717289514471
 20
133.5457694896269
 30
0.0
 10
186.1393208822216
 20
134.1541737536829
 30
0.0
 10
186.4597149737121
 20
134.7956509562154
 30
0.0
 10
186.7246429912993
 20
135.4519420791071
 30
0.0
 10
186.9864704209044
 20
136.1003094771555
 30
0.0
 10
187.2031670698802
 20
136.7125033487453
 30
0.0
 10
187.3688762720381
 20
137.2709536953109
 30
0.0
 10
187.5297623373349
 20
137.8159681606204
 30
0.0
 10
187.6369048776076
 20
138.1945844042204
 30
0.0
 10
187.6837582071159
 20
138.3840647809083
 30
0.0
 10
187.8122603534878
 20
138.7668151418178
 30
0.0
 10
187.7033952643362
 20
139.0279535518713
 30
0.0
 10
187.5903960578751
 20
139.1785043238943
 30
0.0
 10
187.4412233249553
 20
139.3793535231834
 30
0.0
 10
187.2458862820789
 20
139.5061331206764
 30
0.0
 10
187.0085190465554
 20
139.5567760577185
 30
0.0
 10
186.9385835620687
 20
139.5715899780777
 30
0.0
 10
186.8676145482547
 20
139.579513702921
 30
0.0
 10
186.7983680833197
 20
139.579513702921
 30
0.0
 10
186.6371375082471
 20
139.579513702921
 30
0.0
 10
186.4752179136229
 20
139.5395505689286
 30
0.0
 10
186.3170879265325
 20
139.4603133204955
 30
0.0
 10
186.0686963781834
 20
139.3362898012089
 30
0.0
 10
185.9091883519898
 20
139.1058127612013
 30
0.0
 10
185.8433869848127
 20
138.7723272982306
 30
0.0
 10
185.7961891455286
 20
138.514633985935
 30
0.0
 10
185.6897356248076
 20
138.1346397032319
 30
0.0
 10
185.5164472075822
 20
137.6113293537975
 30
0.0
 10
185.3407472219261
 20
137.0866409652599
 30
0.0
 10
185.1529893941172
 20
136.5616080669465
 30
0.0
 10
184.9586858805681
 20
136.0510445792166
 30
0.0
 10
184.7633488376917
 20
135.5394475621593
 30
0.0
 10
184.5607770895236
 20
135.0905513242969
 30
0.0
 10
184.3561382827006
 20
134.7177917468855
 30
0.0
 10
184.1452982999134
 20
134.3329743273211
 30
0.0
 10
184.0305765445733
 20
134.2730296263326
 30
0.0
 10
184.0364332107618
 20
134.270618057902
 30
0.0
 10
183.9902689008051
 20
134.2730296263326
 30
0.0
 10
183.9068975350625
 20
134.3946415771887
 30
0.0
 10
183.8614222446573
 20
134.723648413074
 30
0.0
 10
183.801133033893
 20
135.1584197501288
 30
0.0
 10
183.782529506
 20
135.6841416679937
 30
0.0
 10
183.8076787196331
 20
136.2860002463096
 30
0.0
 10
183.8324834234905
 20
136.9102519600523
 30
0.0
 10
183.8882940071695
 20
137.5565522994459
 30
0.0
 10
183.9740769413427
 20
138.2080202854764
 30
0.0
 10
184.0598598755159
 20
138.8725796429873
 30
0.0
 10
184.1535665345325
 20
139.434130577535
 30
0.0
 10
184.2555414281682
 20
139.8961181868777
 30
0.0
 10
184.289647895972
 20
140.2147897294891
 30
0.0
 10
184.1366855555185
 20
140.5065895095885
 30
0.0
 10
183.8000995045656
 20
140.7629047827808
 30
0.0
 10
183.5145009004306
 20
140.9802904513082
 30
0.0
 10
183.1779148494778
 20
141.1459996534662
 30
0.0
 10
182.798954096102
 20
141.2541757230662
 30
0.0
 10
182.5901811719695
 20
141.3137759142789
 30
0.0
 10
182.3838198162676
 20
141.344092774549
 30
0.0
 10
182.1857266951848
 20
141.344092774549
 30
0.0
 10
182.0096821997529
 20
141.344092774549
 30
0.0
 10
181.8357047629759
 20
141.3199770902432
 30
0.0
 10
181.6686175217147
 20
141.273123760735
 30
0.0
 10
181.2603734373963
 20
141.158057495619
 30
0.0
 10
181.0181830650116
 20
140.8483432071783
 30
0.0
 10
180.9840765972077
 20
140.3991024595401
 30
0.0
 10
180.8831352328995
 20
140.1179824824904
 30
0.0
 10
180.7708250459899
 20
139.755213688577
 30
0.0
 10
180.6502466244613
 20
139.3197533319707
 30
0.0
 10
180.5258785953988
 20
138.8718906234357
 30
0.0
 10
180.3884191948562
 20
138.3992232110433
 30
0.0
 10
180.2402799912638
 20
137.9031291338968
 30
0.0
 10
180.0914517681199
 20
137.4056570176472
 30
0.0
 10
179.9353888396842
 20
136.9088739209491
 30
0.0
 10
179.7745027743874
 20
136.4127798438026
 30
0.0
 10
179.6091380820052
 20
135.9056614538306
 30
0.0
 10
179.4575537806549
 20
135.4684785483453
 30
0.0
 10
179.3107926161658
 20
135.0774599528167
 30
0.0
 10
179.1678210592104
 20
134.6964321407861
 30
0.0
 10
179.0248495022549
 20
134.3915409892065
 30
0.0
 10
178.8849785332817
 20
134.1703657131453
 30
0.0
 10
178.8432928504104
 20
134.1045643459683
 30
0.0
 10
178.8098754021581
 20
134.0625341533211
 30
0.0
 10
178.7854152080766
 20
134.0360069005849
 30
0.0
 10
178.7657781508562
 20
134.1121435610358
 30
0.0
 10
178.7433850154295
 20
134.270618057902
 30
0.0
 10
178.7592324651161
 20
134.5823994049976
 30
0.0
 10
178.783003639646
 20
135.081938579902
 30
0.0
 10
178.8453599090651
 20
135.7103244109542
 30
0.0
 10
178.943545195167
 20
136.4496423898128
 30
0.0
 10
179.0455200888027
 20
137.2144540920803
 30
0.0
 10
179.1461169433352
 20
138.0336983389236
 30
0.0
 10
179.2432687001097
 20
138.8842929753643
 30
0.0
 10
179.3414539862116
 20
139.740055258442
 30
0.0
 10
179.4175906466626
 20
140.586860287349
 30
0.0
 10
179.4685780934804
 20
141.3974917897974
 30
0.0
 10
179.4923492680103
 20
141.6665539246942
 30
0.0
 10
179.4148345684562
 20
142.0372464434509
 30
0.0
 10
178.9087497078116
 20
142.2697905421133
 30
0.0
 10
178.6407211022422
 20
142.3920915125209
 30
0.0
 10
178.3447872048333
 20
142.4541032721642
 30
0.0
 10
178.0288717404282
 20
142.4541032721642
 30
0.0
 10
177.9434333160308
 20
142.4541032721642
 30
0.0
 10
177.8562723427543
 20
142.4496246450789
 30
0.0
 10
177.7677333303747
 20
142.4406673909082
 30
0.0
 10
177.3532880700919
 20
142.3996707275884
 30
0.0
 10
176.9674371212002
 20
142.2594552488394
 30
0.0
 10
176.6205157769735
 20
142.0241550719706
 30
0.0
 10
176.2415550235977
 20
141.7664617596751
 30
0.0
 10
176.0410503340843
 20
141.3647633610967
 30
0.0
 10
176.0413948438601
 20
140.8676357546229
 30
0.0
 10
176.016245630227
 20
140.1803387519095
 30
0.0
 10
175.9728373984767
 20
139.4675480257872
 30
0.0
 10
175.9111701486092
 20
138.7489006334764
 30
0.0
 10
175.8488138791901
 20
138.0257746140803
 30
0.0
 10
175.798170942148
 20
137.3181515345949
 30
0.0
 10
175.7606193765862
 20
136.6467019815682
 30
0.0
 10
175.7227233012487
 20
135.9645726254918
 30
0.0
 10
175.7037752635799
 20
135.3310191478026
 30
0.0
 10
175.7037752635799
 20
134.7632670372905
 30
0.0
 10
175.7037752635799
 20
134.1765668891097
 30
0.0
 10
175.7430493780206
 20
133.6815063412906
 30
0.0
 10
175.8209085873506
 20
133.2911767653135
 30
0.0
 10
175.904624462869
 20
132.8753534659276
 30
0.0
 10
176.0799799387493
 20
132.5043164373951
 30
0.0
 10
176.3428408976818
 20
132.1880564632142
 30
0.0
 10
176.6032902881837
 20
131.8731745281365
 30
0.0
 10
176.9092149690907
 20
131.6296061166486
 30
0.0
 10
177.2523467057837
 20
131.464930443818
 30
0.0
 10
177.5355337414881
 20
131.3295381019301
 30
0.0
 10
177.833190187776
 20
131.2606361467709
 30
0.0
 10
178.1360142807008
 20
131.2606361467709
 30
0.0
 10
178.1360142807008
 20
131.2606361467709
 30
0.0
 10
178.1360142807008
 20
131.2606361467709
 30
0.0
 10
178.1360142807008
 20
131.2606361467709
 30
0.0
  0
SPLINE
  5
82
330
64
100
AcDbEntity
  8
Ebene 2
 62
   250
420
  2301728
370
     5
100
AcDbSpline
210
0.0
220
0.0
230
1.0
 70
    11
 71
     3
 72
   119
 73
   115
 74
     0
 42
0.0000000001
 43
0.0000000001
 40
0.0
 40
0.0
 40
0.0
 40
0.0
 40
1.0
 40
1.0
 40
1.0
 40
2.0
 40
2.0
 40
2.0
 40
3.0
 40
3.0
 40
3.0
 40
4.0
 40
4.0
 40
4.0
 40
5.0
 40
5.0
 40
5.0
 40
6.0
 40
6.0
 40
6.0
 40
7.0
 40
7.0
 40
7.0
 40
8.0
 40
8.0
 40
8.0
 40
9.0
 40
9.0
 40
9.0
 40
10.0
 40
10.0
 40
10.0
 40
11.0
 40
11.0
 40
11.0
 40
12.0
 40
12.0
 40
12.0
 40
13.0
 40
13.0
 40
13.0
 40
14.0
 40
14.0
 40
14.0
 40
15.0
 40
15.0
 40
15.0
 40
16.0
 40
16.0
 40
16.0
 40
17.0
 40
17.0
 40
17.0
 40
18.0
 40
18.0
 40
18.0
 40
19.0
 40
19.0
 40
19.0
 40
20.0
 40
20.0
 40
20.0
 40
21.0
 40
21.0
 40
21.0
 40
22.0
 40
22.0
 40
22.0
 40
23.0
 40
23.0
 40
23.0
 40
24.0
 40
24.0
 40
24.0
 40
25.0
 40
25.0
 40
25.0
 40
26.0
 40
26.0
 40
26.0
 40
27.0
 40
27.0
 40
27.0
 40
28.0
 40
28.0
 40
28.0
 40
29.0
 40
29.0
 40
29.0
 40
30.0
 40
30.0
 40
30.0
 40
31.0
 40
31.0
 40
31.0
 40
32.0
 40
32.0
 40
32.0
 40
33.0
 40
33.0
 40
33.0
 40
34.0
 40
34.0
 40
34.0
 40
35.0
 40
35.0
 40
35.0
 40
36.0
 40
36.0
 40
36.0
 40
37.0
 40
37.0
 40
37.0
 40
38.0
 40
38.0
 40
38.0
 40
38.0
 10
149.0669684185717
 20
145.6732026172036
 30
0.0
 10
148.2894098545997
 20
145.6732026172036
 30
0.0
 10
147.7021929417552
 20
146.0811021917463
 30
0.0
 10
147.3211651297246
 20
146.8855325182303
 30
0.0
 10
146.9737270208342
 20
147.6186493211246
 30
0.0
 10
146.7330869424405
 20
148.557782969945
 30
0.0
 10
146.6061350900597
 20
149.6774397412825
 30
0.0
 10
146.4809057865577
 20
150.7815935727092
 30
0.0
 10
146.43646402548
 20
152.0266519024366
 30
0.0
 10
146.4740155910418
 20
153.3783360077728
 30
0.0
 10
146.510878137052
 20
154.7191680551715
 30
0.0
 10
146.580296856875
 20
156.0508705935116
 30
0.0
 10
146.6802046918558
 20
157.3365810767829
 30
0.0
 10
146.777873213294
 20
158.5992094050759
 30
0.0
 10
146.8786423227144
 20
159.7834617593752
 30
0.0
 10
146.9797559419106
 20
160.8560929463166
 30
0.0
 10
147.0782857377883
 20
161.904952958728
 30
0.0
 10
147.1282396552787
 20
162.7085220107726
 30
0.0
 10
147.1282396552787
 20
163.2442347121356
 30
0.0
 10
147.1282396552787
 20
163.9261918133242
 30
0.0
 10
147.3270217959131
 20
164.4174627536095
 30
0.0
 10
147.7190739207692
 20
164.703922632184
 30
0.0
 10
148.0560044814978
 20
164.9497303572145
 30
0.0
 10
148.429280823573
 20
165.0744428960528
 30
0.0
 10
148.8283953988328
 20
165.0744428960528
 30
0.0
 10
148.8695643170405
 20
165.0744428960528
 30
0.0
 10
148.9110777450239
 20
165.0732371118375
 30
0.0
 10
148.9527634278953
 20
165.0704810336311
 30
0.0
 10
149.3942527055781
 20
165.0420589771279
 30
0.0
 10
149.784754536443
 20
164.8825509509343
 30
0.0
 10
150.1137613723284
 20
164.5966078370235
 30
0.0
 10
150.467572912071
 20
164.2887883523496
 30
0.0
 10
150.6064103517169
 20
163.8696922100936
 30
0.0
 10
150.5152875160188
 20
163.3841056811089
 30
0.0
 10
150.4674006571831
 20
163.0993683514133
 30
0.0
 10
150.3885079185258
 20
162.5279988882554
 30
0.0
 10
150.2744751827373
 20
161.6408862155803
 30
0.0
 10
150.1618204860519
 20
160.7634198166274
 30
0.0
 10
150.0550224555551
 20
159.7536616637688
 30
0.0
 10
149.9576984438927
 20
158.6408950879472
 30
0.0
 10
149.8588241382392
 20
157.5196880226186
 30
0.0
 10
149.7709741454111
 20
156.3330240998887
 30
0.0
 10
149.6962155240634
 20
155.1132872386823
 30
0.0
 10
149.6218014124914
 20
153.8907942992696
 30
0.0
 10
149.5780486709653
 20
152.756151352685
 30
0.0
 10
149.5658185739245
 20
151.7413978080774
 30
0.0
 10
149.5534162219959
 20
150.7237159303755
 30
0.0
 10
149.5906232777819
 20
149.8803559992265
 30
0.0
 10
149.6758894472914
 20
149.2347446793844
 30
0.0
 10
149.7516815979666
 20
148.6614804124596
 30
0.0
 10
149.867609137522
 20
148.5133412088672
 30
0.0
 10
149.9103283497207
 20
148.4768231726329
 30
0.0
 10
149.9602822672111
 20
148.5229874825895
 30
0.0
 10
150.0901624526863
 20
148.6752608034915
 30
0.0
 10
150.3132325325143
 20
149.1434495887984
 30
0.0
 10
150.5693755508188
 20
149.6791622901615
 30
0.0
 10
150.8306862157602
 20
150.3013469452493
 30
0.0
 10
151.0901020769347
 20
150.9924335554965
 30
0.0
 10
151.349862447885
 20
151.6859317341742
 30
0.0
 10
151.5942921338124
 20
152.369094619578
 30
0.0
 10
151.816328684313
 20
153.0233186838149
 30
0.0
 10
152.0514566062939
 20
153.7142330391741
 30
0.0
 10
152.194944927913
 20
154.12678349569
 30
0.0
 10
152.2678087454939
 20
154.3214315190149
 30
0.0
 10
152.2767659996646
 20
154.3717299462811
 30
0.0
 10
152.3043267817283
 20
154.4470053322925
 30
0.0
 10
152.343773151057
 20
154.5258980709499
 30
0.0
 10
152.4517769657691
 20
154.9355201943715
 30
0.0
 10
152.6033612671194
 20
155.3442810433537
 30
0.0
 10
152.783195370085
 20
155.7092891508097
 30
0.0
 10
153.1332173022939
 20
156.4244914453626
 30
0.0
 10
153.6031286364799
 20
157.0256610041269
 30
0.0
 10
154.1777709425079
 20
157.4962613578645
 30
0.0
 10
154.7158952123015
 20
157.9365448513319
 30
0.0
 10
155.350482219318
 20
158.1599594409358
 30
0.0
 10
156.0646509845435
 20
158.1599594409358
 30
0.0
 10
156.1428547036492
 20
158.1599594409358
 30
0.0
 10
156.2220919520823
 20
158.1572033627294
 30
0.0
 10
156.302018220067
 20
158.1516912063167
 30
0.0
 10
157.224959909425
 20
158.0986367008441
 30
0.0
 10
157.9935612192262
 20
157.8137271162606
 30
0.0
 10
158.5837064651651
 20
157.3048861774097
 30
0.0
 10
159.16351641783
 20
156.8036244536262
 30
0.0
 10
159.5907085398173
 20
156.1760998970135
 30
0.0
 10
159.8539140085255
 20
155.4395379963613
 30
0.0
 10
160.1136743794758
 20
154.711588840104
 30
0.0
 10
160.2252955468338
 20
153.9298961588225
 30
0.0
 10
160.1863659421688
 20
153.1158195586162
 30
0.0
 10
160.1474363375039
 20
152.3005371741945
 30
0.0
 10
159.9569224314886
 20
151.5312468448417
 30
0.0
 10
159.6189583414325
 20
150.8294804315449
 30
0.0
 10
159.2799607220491
 20
150.1235799009385
 30
0.0
 10
158.7952354675039
 20
149.5265444594838
 30
0.0
 10
158.1792519883803
 20
149.054566066643
 30
0.0
 10
157.549488118225
 20
148.5725968903042
 30
0.0
 10
156.7860544550607
 20
148.3283394592647
 30
0.0
 10
155.9106551147626
 20
148.3283394592647
 30
0.0
 10
154.9288022537435
 20
148.3283394592647
 30
0.0
 10
154.130228593448
 20
148.5884443399908
 30
0.0
 10
153.5366382497512
 20
149.1010748863755
 30
0.0
 10
153.2699876832849
 20
149.3315519263832
 30
0.0
 10
153.0374435846225
 20
149.5930348462124
 30
0.0
 10
152.8424510515219
 20
149.8817340383296
 30
0.0
 10
152.7387536090073
 20
149.6102603350022
 30
0.0
 10
152.6304052845194
 20
149.3422317294328
 30
0.0
 10
152.5187841171614
 20
149.0817823389309
 30
0.0
 10
152.137411795355
 20
148.1922580978252
 30
0.0
 10
151.6724958529181
 20
147.4047087503552
 30
0.0
 10
151.1360941320035
 20
146.740838412396
 30
0.0
 10
150.5642079041818
 20
146.032526313359
 30
0.0
 10
149.8679536472978
 20
145.6732026172036
 30
0.0
 10
149.0669684185717
 20
145.6732026172036
 30
0.0
 10
149.0669684185717
 20
145.6732026172036
 30
0.0
 10
149.0669684185717
 20
145.6732026172036
 30
0.0
 10
149.0669684185717
 20
145.6732026172036
 30
0.0
  0
SPLINE
  5
83
330
64
100
AcDbEntity
  8
Ebene 2
 62
   250
420
  2301728
370
     5
100
AcDbSpline
210
0.0
220
0.0
230
1.0
 70
    11
 71
     3
 72
    47
 73
    43
 74
     0
 42
0.0000000001
 43
0.0000000001
 40
0.0
 40
0.0
 40
0.0
 40
0.0
 40
1.0
 40
1.0
 40
1.0
 40
2.0
 40
2.0
 40
2.0
 40
3.0
 40
3.0
 40
3.0
 40
4.0
 40
4.0
 40
4.0
 40
5.0
 40
5.0
 40
5.0
 40
6.0
 40
6.0
 40
6.0
 40
7.0
 40
7.0
 40
7.0
 40
8.0
 40
8.0
 40
8.0
 40
9.0
 40
9.0
 40
9.0
 40
10.0
 40
10.0
 40
10.0
 40
11.0
 40
11.0
 40
11.0
 40
12.0
 40
12.0
 40
12.0
 40
13.0
 40
13.0
 40
13.0
 40
14.0
 40
14.0
 40
14.0
 40
14.0
 10
156.1724825443677
 20
156.2567151845498
 30
0.0
 10
156.0746417680415
 20
156.2567151845498
 30
0.0
 10
155.9258135448976
 20
156.2234699911855
 30
0.0
 10
155.7583817938607
 20
155.935287563732
 30
0.0
 10
155.598873767667
 20
155.6627803310772
 30
0.0
 10
155.4765727972594
 20
155.3120693793167
 30
0.0
 10
155.3952684901715
 20
154.8931454919486
 30
0.0
 10
155.3112081048772
 20
154.4642308210824
 30
0.0
 10
155.2691779122301
 20
153.9838119387346
 30
0.0
 10
155.2691779122301
 20
153.4649802163856
 30
0.0
 10
155.2691779122301
 20
152.9476987880276
 30
0.0
 10
155.3174092808416
 20
152.4626290237066
 30
0.0
 10
155.4124939789613
 20
152.0232068046786
 30
0.0
 10
155.5055116184263
 20
151.5925695849334
 30
0.0
 10
155.6453825873995
 20
151.2232551052799
 30
0.0
 10
155.8293508076747
 20
150.925598658992
 30
0.0
 10
155.9871362849893
 20
150.6685943662481
 30
0.0
 10
156.1731715639193
 20
150.5404367296519
 30
0.0
 10
156.4160509558556
 20
150.5225222213105
 30
0.0
 10
156.433965464197
 20
150.5207996724315
 30
0.0
 10
156.4477458552288
 20
150.5197661431041
 30
0.0
 10
156.4618707560365
 20
150.5197661431041
 30
0.0
 10
156.5569554541562
 20
150.5197661431041
 30
0.0
 10
156.7023385795422
 20
150.5483604544952
 30
0.0
 10
156.8511668026861
 20
150.7933069050863
 30
0.0
 10
157.0079187506734
 20
151.050655707606
 30
0.0
 10
157.1222959962377
 20
151.3968880322812
 30
0.0
 10
157.1911979513969
 20
151.8227021151652
 30
0.0
 10
157.2628559847626
 20
152.2660861966149
 30
0.0
 10
157.2935173548084
 20
152.7601132151066
 30
0.0
 10
157.2814595126555
 20
153.2906582698327
 30
0.0
 10
157.2690571607269
 20
153.8213755794467
 30
0.0
 10
157.2080789304109
 20
154.319536715248
 30
0.0
 10
157.1016254096899
 20
154.7710167764289
 30
0.0
 10
156.9955163987447
 20
155.2159511518696
 30
0.0
 10
156.8490997440313
 20
155.5935338661422
 30
0.0
 10
156.6651315237562
 20
155.8927406064212
 30
0.0
 10
156.4629042853638
 20
156.2189913641002
 30
0.0
 10
156.2872042997078
 20
156.2567151845498
 30
0.0
 10
156.1724825443677
 20
156.2567151845498
 30
0.0
 10
156.1724825443677
 20
156.2567151845498
 30
0.0
 10
156.1724825443677
 20
156.2567151845498
 30
0.0
 10
156.1724825443677
 20
156.2567151845498
 30
0.0
  0
SPLINE
  5
84
330
64
100
AcDbEntity
  8
Ebene 2
 62
   250
420
  2301728
370
     5
100
AcDbSpline
210
0.0
220
0.0
230
1.0
 70
    11
 71
     3
 72
    92
 73
    88
 74
     0
 42
0.0000000001
 43
0.0000000001
 40
0.0
 40
0.0
 40
0.0
 40
0.0
 40
1.0
 40
1.0
 40
1.0
 40
2.0
 40
2.0
 40
2.0
 40
3.0
 40
3.0
 40
3.0
 40
4.0
 40
4.0
 40
4.0
 40
5.0
 40
5.0
 40
5.0
 40
6.0
 40
6.0
 40
6.0
 40
7.0
 40
7.0
 40
7.0
 40
8.0
 40
8.0
 40
8.0
 40
9.0
 40
9.0
 40
9.0
 40
10.0
 40
10.0
 40
10.0
 40
11.0
 40
11.0
 40
11.0
 40
12.0
 40
12.0
 40
12.0
 40
13.0
 40
13.0
 40
13.0
 40
14.0
 40
14.0
 40
14.0
 40
15.0
 40
15.0
 40
15.0
 40
16.0
 40
16.0
 40
16.0
 40
17.0
 40
17.0
 40
17.0
 40
18.0
 40
18.0
 40
18.0
 40
19.0
 40
19.0
 40
19.0
 40
20.0
 40
20.0
 40
20.0
 40
21.0
 40
21.0
 40
21.0
 40
22.0
 40
22.0
 40
22.0
 40
23.0
 40
23.0
 40
23.0
 40
24.0
 40
24.0
 40
24.0
 40
25.0
 40
25.0
 40
25.0
 40
26.0
 40
26.0
 40
26.0
 40
27.0
 40
27.0
 40
27.0
 40
28.0
 40
28.0
 40
28.0
 40
29.0
 40
29.0
 40
29.0
 40
29.0
 10
163.9832081812184
 20
147.722691273415
 30
0.0
 10
164.0521101363776
 20
147.722691273415
 30
0.0
 10
164.1223901306401
 20
147.7254473516214
 30
0.0
 10
164.1864689489381
 20
147.7299259787067
 30
0.0
 10
164.7938396836668
 20
147.7574867607705
 30
0.0
 10
165.3323084632362
 20
147.981418115038
 30
0.0
 10
165.7870613672872
 20
148.3948298459934
 30
0.0
 10
166.2197656456871
 20
148.7882600099526
 30
0.0
 10
166.5966593404081
 20
149.2905552630634
 30
0.0
 10
166.9077516679521
 20
149.8869016849666
 30
0.0
 10
167.2116092902043
 20
150.4694677158379
 30
0.0
 10
167.4693026024999
 20
151.1140455063525
 30
0.0
 10
167.6739414093228
 20
151.8027205481691
 30
0.0
 10
167.8758241379393
 20
152.4850221591334
 30
0.0
 10
168.0353321641329
 20
153.1485479873168
 30
0.0
 10
168.1479868608183
 20
153.7748667597142
 30
0.0
 10
168.2609860672794
 20
154.4041138652059
 30
0.0
 10
168.3433239036947
 20
154.9639422508747
 30
0.0
 10
168.3932778211852
 20
155.4390212316976
 30
0.0
 10
168.4394421311418
 20
155.8786157056135
 30
0.0
 10
168.4790607553584
 20
156.2072780317231
 30
0.0
 10
168.5059325178705
 20
156.3753988023116
 30
0.0
 10
168.5479627105177
 20
156.8012128851957
 30
0.0
 10
168.3639944902425
 20
157.0392691402708
 30
0.0
 10
168.2017303858425
 20
157.1643261888848
 30
0.0
 10
167.9936464812616
 20
157.3236619601906
 30
0.0
 10
167.7593798337202
 20
157.4044495026148
 30
0.0
 10
167.5030645605279
 20
157.4044495026148
 30
0.0
 10
167.2536394828514
 20
157.4044495026148
 30
0.0
 10
167.0107600909151
 20
157.3271070579485
 30
0.0
 10
166.7816610900107
 20
157.1743169723829
 30
0.0
 10
166.5239677777151
 20
157.0025788491485
 30
0.0
 10
166.3871973967241
 20
156.7348947533549
 30
0.0
 10
166.3871973967241
 20
156.4003757610568
 30
0.0
 10
166.3871973967241
 20
156.1400986254428
 30
0.0
 10
166.3396550476642
 20
155.6746659183422
 30
0.0
 10
166.2400917224591
 20
154.9782394065703
 30
0.0
 10
166.1415619265814
 20
154.2899088745295
 30
0.0
 10
166.0113372313305
 20
153.5795297168378
 30
0.0
 10
165.8521737149126
 20
152.8663944809397
 30
0.0
 10
165.6923211789432
 20
152.1575656172391
 30
0.0
 10
165.5073194293407
 20
151.5212560613436
 30
0.0
 10
165.3009580736388
 20
150.9748635569309
 30
0.0
 10
165.0522220155139
 20
150.317194394936
 30
0.0
 10
164.8872018329076
 20
150.2989353768188
 30
0.0
 10
164.8861683035802
 20
150.2989353768188
 30
0.0
 10
164.884790264477
 20
150.2989353768188
 30
0.0
 10
164.7445747857279
 20
150.3261516491067
 30
0.0
 10
164.523054999891
 20
150.8532516060748
 30
0.0
 10
164.3325410938757
 20
151.3035258830404
 30
0.0
 10
164.1809567925254
 20
151.8812687770506
 30
0.0
 10
164.0720917033738
 20
152.5695993090913
 30
0.0
 10
163.9628821044464
 20
153.2658535659754
 30
0.0
 10
163.9015593643547
 20
154.0215357591843
 30
0.0
 10
163.8888125026503
 20
154.8152862826187
 30
0.0
 10
163.8760656409458
 20
155.5947396503575
 30
0.0
 10
163.9677052413076
 20
156.3326795901129
 30
0.0
 10
164.1637313037356
 20
157.018770808611
 30
0.0
 10
164.2012828692974
 20
157.1899921671817
 30
0.0
 10
164.2226424753968
 20
157.6075380154466
 30
0.0
 10
163.6107931135828
 20
157.7870276086364
 30
0.0
 10
163.3975415623649
 20
157.8488671133918
 30
0.0
 10
163.1660309930299
 20
157.8802175029893
 30
0.0
 10
162.9221180717662
 20
157.8802175029893
 30
0.0
 10
162.7856922005509
 20
157.8802175029893
 30
0.0
 10
162.6420316240439
 20
157.8703989743791
 30
0.0
 10
162.4956149693305
 20
157.8509341720466
 30
0.0
 10
162.0849593165815
 20
157.7959848628071
 30
0.0
 10
161.6898066037433
 20
157.6438837967931
 30
0.0
 10
161.3215256534172
 20
157.398937346202
 30
0.0
 10
160.9212052939421
 20
157.1312532504084
 30
0.0
 10
160.6945178614682
 20
156.7283490676148
 30
0.0
 10
160.6679906087319
 20
156.2458631266122
 30
0.0
 10
160.5419000307905
 20
155.2614264422747
 30
0.0
 10
160.5098606216414
 20
154.2511515247524
 30
0.0
 10
160.5729059106121
 20
153.2432881756608
 30
0.0
 10
160.635606689807
 20
152.2292236506047
 30
0.0
 10
160.803038440844
 20
151.3018033341614
 30
0.0
 10
161.0710670464134
 20
150.4866932046277
 30
0.0
 10
161.3432297692924
 20
149.6560801351831
 30
0.0
 10
161.7345928745968
 20
148.9749843084341
 30
0.0
 10
162.2337875397255
 20
148.4616647424978
 30
0.0
 10
162.7116225987548
 20
147.9714273315399
 30
0.0
 10
163.3000452958146
 20
147.722691273415
 30
0.0
 10
163.9832081812184
 20
147.722691273415
 30
0.0
 10
163.9832081812184
 20
147.722691273415
 30
0.0
 10
163.9832081812184
 20
147.722691273415
 30
0.0
 10
163.9832081812184
 20
147.722691273415
 30
0.0
  0
SPLINE
  5
85
330
64
100
AcDbEntity
  8
Ebene 2
 62
   250
420
  2301728
370
     5
100
AcDbSpline
210
0.0
220
0.0
230
1.0
 70
    11
 71
     3
 72
   116
 73
   112
 74
     0
 42
0.0000000001
 43
0.0000000001
 40
0.0
 40
0.0
 40
0.0
 40
0.0
 40
1.0
 40
1.0
 40
1.0
 40
2.0
 40
2.0
 40
2.0
 40
3.0
 40
3.0
 40
3.0
 40
4.0
 40
4.0
 40
4.0
 40
5.0
 40
5.0
 40
5.0
 40
6.0
 40
6.0
 40
6.0
 40
7.0
 40
7.0
 40
7.0
 40
8.0
 40
8.0
 40
8.0
 40
9.0
 40
9.0
 40
9.0
 40
10.0
 40
10.0
 40
10.0
 40
11.0
 40
11.0
 40
11.0
 40
12.0
 40
12.0
 40
12.0
 40
13.0
 40
13.0
 40
13.0
 40
14.0
 40
14.0
 40
14.0
 40
15.0
 40
15.0
 40
15.0
 40
16.0
 40
16.0
 40
16.0
 40
17.0
 40
17.0
 40
17.0
 40
18.0
 40
18.0
 40
18.0
 40
19.0
 40
19.0
 40
19.0
 40
20.0
 40
20.0
 40
20.0
 40
21.0
 40
21.0
 40
21.0
 40
22.0
 40
22.0
 40
22.0
 40
23.0
 40
23.0
 40
23.0
 40
24.0
 40
24.0
 40
24.0
 40
25.0
 40
25.0
 40
25.0
 40
26.0
 40
26.0
 40
26.0
 40
27.0
 40
27.0
 40
27.0
 40
28.0
 40
28.0
 40
28.0
 40
29.0
 40
29.0
 40
29.0
 40
30.0
 40
30.0
 40
30.0
 40
31.0
 40
31.0
 40
31.0
 40
32.0
 40
32.0
 40
32.0
 40
33.0
 40
33.0
 40
33.0
 40
34.0
 40
34.0
 40
34.0
 40
35.0
 40
35.0
 40
35.0
 40
36.0
 40
36.0
 40
36.0
 40
37.0
 40
37.0
 40
37.0
 40
37.0
 10
172.6638210019545
 20
146.3091676633234
 30
0.0
 10
171.6888583364513
 20
146.3091676633234
 30
0.0
 10
170.9171564386679
 20
146.6557444977743
 30
0.0
 10
170.3700749147036
 20
147.3399409125055
 30
0.0
 10
169.8464200554934
 20
147.993131447415
 30
0.0
 10
169.4895079277686
 20
148.8237445168596
 30
0.0
 10
169.3082957856998
 20
149.8093869854124
 30
0.0
 10
169.130528741389
 20
150.7781484749513
 30
0.0
 10
169.0981448224641
 20
151.828214271578
 30
0.0
 10
169.2121775582526
 20
152.9299565345741
 30
0.0
 10
169.3258657842654
 20
154.0311820329066
 30
0.0
 10
169.5570318438246
 20
155.076769202448
 30
0.0
 10
169.8991300511902
 20
156.0376069671435
 30
0.0
 10
170.2432953172106
 20
157.0080910055613
 30
0.0
 10
170.6856458693329
 20
157.826646232853
 30
0.0
 10
171.2134348458526
 20
158.4700182391523
 30
0.0
 10
171.7736077412972
 20
159.1526643598924
 30
0.0
 10
172.4119843558475
 20
159.4985521747918
 30
0.0
 10
173.1127172398169
 20
159.4985521747918
 30
0.0
 10
173.7714199311391
 20
159.4985521747918
 30
0.0
 10
174.3636322357328
 20
159.2692809189994
 30
0.0
 10
174.8731621941353
 20
158.8169395833791
 30
0.0
 10
175.3582319584563
 20
158.3833740305396
 30
0.0
 10
175.7375372216079
 20
157.8703989743791
 30
0.0
 10
176.001087200092
 20
157.2923115705931
 30
0.0
 10
176.2622256101455
 20
156.7157744607982
 30
0.0
 10
176.4144989310474
 20
156.1194280388951
 30
0.0
 10
176.4537730454881
 20
155.5198087741218
 30
0.0
 10
176.4951142185837
 20
154.8838437280021
 30
0.0
 10
176.3697126601939
 20
154.3725912207206
 30
0.0
 10
176.0817024876283
 20
154.0003484079728
 30
0.0
 10
175.8663838777557
 20
153.7026919616849
 30
0.0
 10
175.5893980180155
 20
153.4529223742327
 30
0.0
 10
175.2610802016818
 20
153.2622362133295
 30
0.0
 10
174.9496433643621
 20
153.0801627968213
 30
0.0
 10
174.6058226081175
 20
152.9277172210315
 30
0.0
 10
174.2389196968946
 20
152.8097226228213
 30
0.0
 10
173.8744283541022
 20
152.6929338088264
 30
0.0
 10
173.501324266915
 20
152.6080121490926
 30
0.0
 10
173.1299427286067
 20
152.5568524473869
 30
0.0
 10
172.8515788297634
 20
152.5182673524977
 30
0.0
 10
172.5956080663468
 20
152.4867447080124
 30
0.0
 10
172.367198084994
 20
152.4629735334824
 30
0.0
 10
172.3103539719876
 20
152.0176946482659
 30
0.0
 10
172.2762475041838
 20
151.5794782134531
 30
0.0
 10
172.2655677011341
 20
151.1584872674302
 30
0.0
 10
172.2524763296539
 20
150.6847863257105
 30
0.0
 10
172.2765920139596
 20
150.2476034202251
 30
0.0
 10
172.3372257344997
 20
149.8576183540239
 30
0.0
 10
172.3937253377303
 20
149.488992893922
 30
0.0
 10
172.4863984674195
 20
149.1747999783959
 30
0.0
 10
172.6121445355851
 20
148.9233078420647
 30
0.0
 10
172.7189425660819
 20
148.7104008006227
 30
0.0
 10
172.853990398194
 20
148.5853437520086
 30
0.0
 10
173.0365805793659
 20
148.5298776781055
 30
0.0
 10
173.1171958669022
 20
148.5050729742481
 30
0.0
 10
173.1991891935417
 20
148.4933596418711
 30
0.0
 10
173.2822160495086
 20
148.4933596418711
 30
0.0
 10
173.4668732893354
 20
148.4933596418711
 30
0.0
 10
173.6697895472793
 20
148.5546823819628
 30
0.0
 10
173.8847636473761
 20
148.675949823043
 30
0.0
 10
174.2309959720513
 20
148.871975885471
 30
0.0
 10
174.5755057478474
 20
149.1513733136418
 30
0.0
 10
174.9086467010423
 20
149.507596421815
 30
0.0
 10
175.2441992226678
 20
149.865886588643
 30
0.0
 10
175.5745840976563
 20
150.2948012595092
 30
0.0
 10
175.8908440718372
 20
150.7809045531576
 30
0.0
 10
176.212271692655
 20
151.2756205912009
 30
0.0
 10
176.4971812772384
 20
151.753800160006
 30
0.0
 10
176.7390271398474
 20
152.2023518880926
 30
0.0
 10
176.98466260999
 20
152.654693223713
 30
0.0
 10
177.1958471025531
 20
153.0768899539512
 30
0.0
 10
177.3663794415722
 20
153.457573256206
 30
0.0
 10
177.5393233490219
 20
153.8392900877881
 30
0.0
 10
177.6454323599671
 20
154.1028400662722
 30
0.0
 10
177.6909076503722
 20
154.2638983864569
 30
0.0
 10
177.7925380342321
 20
154.5670669891575
 30
0.0
 10
177.9579027266142
 20
154.7701555019894
 30
0.0
 10
178.1849346688639
 20
154.8750587287193
 30
0.0
 10
178.3396195581963
 20
154.946544507197
 30
0.0
 10
178.4953379768562
 20
154.9827180336556
 30
0.0
 10
178.6479558075339
 20
154.9827180336556
 30
0.0
 10
178.6992877641275
 20
154.9827180336556
 30
0.0
 10
178.750964230497
 20
154.9784116614582
 30
0.0
 10
178.8019516773148
 20
154.970143426839
 30
0.0
 10
179.019681855618
 20
154.9336253906046
 30
0.0
 10
179.2002049781352
 20
154.8176978510492
 30
0.0
 10
179.34076496666
 20
154.6256336510429
 30
0.0
 10
179.4847700529428
 20
154.4261624908569
 30
0.0
 10
179.5240441673836
 20
154.1744980996378
 30
0.0
 10
179.4578982904307
 20
153.876669398462
 30
0.0
 10
179.4024322165275
 20
153.7047590203397
 30
0.0
 10
179.3159602628027
 20
153.4146817891193
 30
0.0
 10
179.1940038021709
 20
152.9837000595983
 30
0.0
 10
179.0675687144537
 20
152.5427275465792
 30
0.0
 10
178.8811889257479
 20
152.0356091566073
 30
0.0
 10
178.6403765924664
 20
151.4754362611627
 30
0.0
 10
178.3937075929963
 20
150.9066506213232
 30
0.0
 10
178.0994962444664
 20
150.3254626295551
 30
0.0
 10
177.7653217619441
 20
149.7466862062175
 30
0.0
 10
177.4218455154754
 20
149.1472391963322
 30
0.0
 10
177.0001655499009
 20
148.5887888497666
 30
0.0
 10
176.5123397073735
 20
148.087871635759
 30
0.0
 10
176.0221022964155
 20
147.5855763826482
 30
0.0
 10
175.4536611663518
 20
147.1607958290915
 30
0.0
 10
174.8232082766449
 20
146.825243307466
 30
0.0
 10
174.1772524470271
 20
146.4828005903246
 30
0.0
 10
173.4506813298729
 20
146.3091676633234
 30
0.0
 10
172.6638210019545
 20
146.3091676633234
 30
0.0
 10
172.6638210019545
 20
146.3091676633234
 30
0.0
 10
172.6638210019545
 20
146.3091676633234
 30
0.0
 10
172.6638210019545
 20
146.3091676633234
 30
0.0
  0
SPLINE
  5
86
330
64
100
AcDbEntity
  8
Ebene 2
 62
   250
420
  2301728
370
     5
100
AcDbSpline
210
0.0
220
0.0
230
1.0
 70
    11
 71
     3
 72
    32
 73
    28
 74
     0
 42
0.0000000001
 43
0.0000000001
 40
0.0
 40
0.0
 40
0.0
 40
0.0
 40
1.0
 40
1.0
 40
1.0
 40
2.0
 40
2.0
 40
2.0
 40
3.0
 40
3.0
 40
3.0
 40
4.0
 40
4.0
 40
4.0
 40
5.0
 40
5.0
 40
5.0
 40
6.0
 40
6.0
 40
6.0
 40
7.0
 40
7.0
 40
7.0
 40
8.0
 40
8.0
 40
8.0
 40
9.0
 40
9.0
 40
9.0
 40
9.0
 10
173.5953754357073
 20
157.1841355009931
 30
0.0
 10
173.5216503436869
 20
157.0943907043982
 30
0.0
 10
173.4014164319341
 20
156.8938860148849
 30
0.0
 10
173.2412193861888
 20
156.4453342867982
 30
0.0
 10
173.0737876351519
 20
155.9735281488454
 30
0.0
 10
172.9132460796309
 20
155.4090488812033
 30
0.0
 10
172.7633843271596
 20
154.7648156004645
 30
0.0
 10
172.9104900014245
 20
154.7791127561601
 30
0.0
 10
173.0586292050169
 20
154.8030561855779
 30
0.0
 10
173.2060793890576
 20
154.8363013789422
 30
0.0
 10
173.4155413327417
 20
154.8836714731142
 30
0.0
 10
173.5550677919392
 20
154.9722104854938
 30
0.0
 10
173.6446403336462
 20
155.1150097875613
 30
0.0
 10
173.7231885625277
 20
155.2340379150989
 30
0.0
 10
173.7721089506908
 20
155.4149055473919
 30
0.0
 10
173.7931240470143
 20
155.6558901355613
 30
0.0
 10
173.8158616922169
 20
155.9278806035524
 30
0.0
 10
173.8100050260283
 20
156.2050387181804
 30
0.0
 10
173.7748650288971
 20
156.4803020290416
 30
0.0
 10
173.7411030708691
 20
156.7541873007995
 30
0.0
 10
173.6846034676385
 20
156.9820805174887
 30
0.0
 10
173.6074332778602
 20
157.1581250129205
 30
0.0
 10
173.6032991605506
 20
157.1675990317549
 30
0.0
 10
173.5991650432411
 20
157.1762117761498
 30
0.0
 10
173.5953754357073
 20
157.1841355009931
 30
0.0
 10
173.5953754357073
 20
157.1841355009931
 30
0.0
 10
173.5953754357073
 20
157.1841355009931
 30
0.0
 10
173.5953754357073
 20
157.1841355009931
 30
0.0
  0
SPLINE
  5
87
330
64
100
AcDbEntity
  8
Ebene 2
 62
   250
420
  2301728
370
     5
100
AcDbSpline
210
0.0
220
0.0
230
1.0
 70
    11
 71
     3
 72
   149
 73
   145
 74
     0
 42
0.0000000001
 43
0.0000000001
 40
0.0
 40
0.0
 40
0.0
 40
0.0
 40
1.0
 40
1.0
 40
1.0
 40
2.0
 40
2.0
 40
2.0
 40
3.0
 40
3.0
 40
3.0
 40
4.0
 40
4.0
 40
4.0
 40
5.0
 40
5.0
 40
5.0
 40
6.0
 40
6.0
 40
6.0
 40
7.0
 40
7.0
 40
7.0
 40
8.0
 40
8.0
 40
8.0
 40
9.0
 40
9.0
 40
9.0
 40
10.0
 40
10.0
 40
10.0
 40
11.0
 40
11.0
 40
11.0
 40
12.0
 40
12.0
 40
12.0
 40
13.0
 40
13.0
 40
13.0
 40
14.0
 40
14.0
 40
14.0
 40
15.0
 40
15.0
 40
15.0
 40
16.0
 40
16.0
 40
16.0
 40
17.0
 40
17.0
 40
17.0
 40
18.0
 40
18.0
 40
18.0
 40
19.0
 40
19.0
 40
19.0
 40
20.0
 40
20.0
 40
20.0
 40
21.0
 40
21.0
 40
21.0
 40
22.0
 40
22.0
 40
22.0
 40
23.0
 40
23.0
 40
23.0
 40
24.0
 40
24.0
 40
24.0
 40
25.0
 40
25.0
 40
25.0
 40
26.0
 40
26.0
 40
26.0
 40
27.0
 40
27.0
 40
27.0
 40
28.0
 40
28.0
 40
28.0
 40
29.0
 40
29.0
 40
29.0
 40
30.0
 40
30.0
 40
30.0
 40
31.0
 40
31.0
 40
31.0
 40
32.0
 40
32.0
 40
32.0
 40
33.0
 40
33.0
 40
33.0
 40
34.0
 40
34.0
 40
34.0
 40
35.0
 40
35.0
 40
35.0
 40
36.0
 40
36.0
 40
36.0
 40
37.0
 40
37.0
 40
37.0
 40
38.0
 40
38.0
 40
38.0
 40
39.0
 40
39.0
 40
39.0
 40
40.0
 40
40.0
 40
40.0
 40
41.0
 40
41.0
 40
41.0
 40
42.0
 40
42.0
 40
42.0
 40
43.0
 40
43.0
 40
43.0
 40
44.0
 40
44.0
 40
44.0
 40
45.0
 40
45.0
 40
45.0
 40
46.0
 40
46.0
 40
46.0
 40
47.0
 40
47.0
 40
47.0
 40
48.0
 40
48.0
 40
48.0
 40
48.0
 10
125.738661205422
 20
126.3451706657112
 30
0.0
 10
125.8408083539456
 20
126.3451706657112
 30
0.0
 10
125.9434722671328
 20
126.345515175487
 30
0.0
 10
126.0476864743112
 20
126.3475822341417
 30
0.0
 10
128.2523767845188
 20
126.3768655650844
 30
0.0
 10
130.6660122737467
 20
126.6052755464373
 30
0.0
 10
133.2208967710511
 20
127.0262664924602
 30
0.0
 10
135.7725084254854
 20
127.4465684189315
 30
0.0
 10
138.2112931283465
 20
127.9888268060347
 30
0.0
 10
140.4692101989146
 20
128.6375387138589
 30
0.0
 10
142.7233376619489
 20
129.2859061119073
 30
0.0
 10
144.6655115229998
 20
129.9570111551582
 30
0.0
 10
146.2412992374915
 20
130.6322503157187
 30
0.0
 10
147.92388498248
 20
131.3539982960117
 30
0.0
 10
148.7996288325539
 20
131.936564326883
 30
0.0
 10
148.9966884243093
 20
132.4640087936269
 30
0.0
 10
149.4111336845921
 20
133.5426689016447
 30
0.0
 10
148.932954115787
 20
134.0807931714383
 30
0.0
 10
148.4587364094035
 20
134.3419315814918
 30
0.0
 10
147.8584281250787
 20
134.671282927153
 30
0.0
 10
147.0784579926762
 20
134.8387146781899
 30
0.0
 10
146.1401856182953
 20
134.8387146781899
 30
0.0
 10
145.8554482885998
 20
134.8387146781899
 30
0.0
 10
145.5081824345973
 20
134.8242452676065
 30
0.0
 10
145.1085510946737
 20
134.7953064464396
 30
0.0
 10
144.7082307351986
 20
134.7660231154969
 30
0.0
 10
144.0643419642355
 20
134.6947095919071
 30
0.0
 10
143.1944547803502
 20
134.5834329343249
 30
0.0
 10
142.3671145537757
 20
134.4759458842765
 30
0.0
 10
141.2083559228853
 20
134.3381419739581
 30
0.0
 10
139.6518607558382
 20
134.1614084589746
 30
0.0
 10
138.2646921435949
 20
134.0043120012116
 30
0.0
 10
136.3943485707975
 20
133.7700453536702
 30
0.0
 10
134.0894059158333
 20
133.464465182539
 30
0.0
 10
134.9980504494957
 20
135.3144826785644
 30
0.0
 10
135.6844861777695
 20
137.2609629118128
 30
0.0
 10
136.1307985923135
 20
139.2556745136726
 30
0.0
 10
136.608116886679
 20
141.3919796333846
 30
0.0
 10
136.9507318587083
 20
143.59029651274
 30
0.0
 10
137.1493417444548
 20
145.7896469214227
 30
0.0
 10
137.3455400617707
 20
147.9845187030201
 30
0.0
 10
137.4309784861682
 20
150.1952379343041
 30
0.0
 10
137.4035899589924
 20
152.3604818751831
 30
0.0
 10
137.3756846671529
 20
154.4299520983907
 30
0.0
 10
137.3615597663453
 20
156.5736641782823
 30
0.0
 10
137.3615597663453
 20
158.7318456687574
 30
0.0
 10
137.3615597663453
 20
159.6766637288784
 30
0.0
 10
137.3756846671529
 20
160.782712364072
 30
0.0
 10
137.4035899589924
 20
162.019846968956
 30
0.0
 10
137.4311507410561
 20
163.3153759808375
 30
0.0
 10
137.3739621182739
 20
164.6612034199853
 30
0.0
 10
137.2334021297491
 20
166.0201222306133
 30
0.0
 10
137.0924976314485
 20
167.3707728066221
 30
0.0
 10
136.8628818658803
 20
168.6895562283699
 30
0.0
 10
136.5514450285606
 20
169.9399544596221
 30
0.0
 10
136.2792823056816
 20
171.0265382924832
 30
0.0
 10
135.8625977318561
 20
171.9582649811239
 30
0.0
 10
135.311726600358
 20
172.7148084487723
 30
0.0
 10
137.5689546513746
 20
172.9676786242067
 30
0.0
 10
139.5276649816637
 20
173.1633601768589
 30
0.0
 10
141.1372146541834
 20
173.2958241856525
 30
0.0
 10
142.8396097112801
 20
173.4344893704105
 30
0.0
 10
144.2639853793094
 20
173.5767719078143
 30
0.0
 10
145.3707230340546
 20
173.7188821903302
 30
0.0
 10
146.4915855896074
 20
173.8620260021736
 30
0.0
 10
147.3163419928634
 20
174.0701099067544
 30
0.0
 10
147.822426853508
 20
174.337966257436
 30
0.0
 10
148.3808772000736
 20
174.6342446646207
 30
0.0
 10
148.6761220779309
 20
175.0776287460703
 30
0.0
 10
148.6761220779309
 20
175.6197148782856
 30
0.0
 10
148.6761220779309
 20
176.4549788297034
 30
0.0
 10
148.447884351466
 20
177.2137616108945
 30
0.0
 10
147.9981268391641
 20
177.8748758706473
 30
0.0
 10
147.5587046201361
 20
178.5184201318346
 30
0.0
 10
146.9950866269335
 20
179.0675687144537
 30
0.0
 10
146.3222590348036
 20
179.5068186785938
 30
0.0
 10
145.6561493833017
 20
179.940900996097
 30
0.0
 10
144.9206210119769
 20
180.2645679304574
 30
0.0
 10
144.1358277427132
 20
180.4688622275046
 30
0.0
 10
143.3568911396381
 20
180.6705727012332
 30
0.0
 10
142.6391050217668
 20
180.7727198497568
 30
0.0
 10
142.0027954658713
 20
180.7727198497568
 30
0.0
 10
140.3060848200751
 20
180.7727198497568
 30
0.0
 10
138.5706168245019
 20
180.6006372167466
 30
0.0
 10
136.8451396124268
 20
180.2611228326995
 30
0.0
 10
135.1455006335364
 20
179.927292859953
 30
0.0
 10
133.4210569507887
 20
179.528350539581
 30
0.0
 10
131.7196954230193
 20
179.0753201844091
 30
0.0
 10
130.0307362471786
 20
178.624184633004
 30
0.0
 10
128.3552129525939
 20
178.1739103560384
 30
0.0
 10
126.6946758332564
 20
177.7239805888486
 30
0.0
 10
125.0570486140093
 20
177.2787017036321
 30
0.0
 10
123.3804917900972
 20
176.9403931038002
 30
0.0
 10
121.7263281016119
 20
176.719390082627
 30
0.0
 10
120.4447517356502
 20
176.6608234207416
 30
0.0
 10
119.4332710339126
 20
176.3752248166066
 30
0.0
 10
118.7189300137993
 20
175.8705179950652
 30
0.0
 10
117.9951149748515
 20
175.3571984291289
 30
0.0
 10
117.5496638347471
 20
174.7973700434601
 30
0.0
 10
117.3954957100783
 20
174.2068802877455
 30
0.0
 10
117.2316813116872
 20
173.5872794559761
 30
0.0
 10
117.3779257115127
 20
173.0114313657328
 30
0.0
 10
117.8297502824694
 20
172.495700231366
 30
0.0
 10
118.2712395601522
 20
171.9892708609456
 30
0.0
 10
119.0179644991904
 20
171.7327833328653
 30
0.0
 10
120.0490822581483
 20
171.7327833328653
 30
0.0
 10
121.7459651588323
 20
171.7327833328653
 30
0.0
 10
123.3717067908144
 20
171.7896274458717
 30
0.0
 10
124.8808318636896
 20
171.9019376327813
 30
0.0
 10
126.308308119701
 20
172.0077021339507
 30
0.0
 10
127.7106351620793
 20
172.1129498704564
 30
0.0
 10
129.0893632848156
 20
172.2194033911774
 30
0.0
 10
129.1956445506487
 20
168.5217799675571
 30
0.0
 10
129.2640297411442
 20
164.9357777112948
 30
0.0
 10
129.2926240525353
 20
161.558548379165
 30
0.0
 10
129.3200125797111
 20
158.1013927790504
 30
0.0
 10
129.3629040467977
 20
154.7338097206429
 30
0.0
 10
129.4192313951404
 20
151.5495058629589
 30
0.0
 10
129.4746974690436
 20
148.3338516156774
 30
0.0
 10
129.5172444263544
 20
145.1526483459756
 30
0.0
 10
129.5454942279697
 20
142.0954685955604
 30
0.0
 10
129.5727105002576
 20
139.0765294302586
 30
0.0
 10
129.6409234358652
 20
136.0283069340141
 30
0.0
 10
129.7485827408015
 20
133.033483453018
 30
0.0
 10
127.6796292822576
 20
132.7692444549823
 30
0.0
 10
125.9143611910781
 20
132.5666727068142
 30
0.0
 10
124.4996317967711
 20
132.4309358551505
 30
0.0
 10
123.0366710338527
 20
132.2900313568499
 30
0.0
 10
121.8384660336336
 20
132.1470597998944
 30
0.0
 10
120.9382619894782
 20
132.0068443211454
 30
0.0
 10
120.0115306925865
 20
131.8614611957594
 30
0.0
 10
119.3287123169585
 20
131.6668131724346
 30
0.0
 10
118.9085826453751
 20
131.4273788782563
 30
0.0
 10
118.4309198412337
 20
131.1538381162741
 30
0.0
 10
118.188729468849
 20
130.7948589298945
 30
0.0
 10
118.188729468849
 20
130.3607766123913
 30
0.0
 10
118.188729468849
 20
128.8445890891124
 30
0.0
 10
118.967838326812
 20
127.7700630984041
 30
0.0
 10
120.5045241817508
 20
127.1671709907608
 30
0.0
 10
121.8966881857431
 20
126.6221565254513
 30
0.0
 10
123.6576499047252
 20
126.3451706657112
 30
0.0
 10
125.738661205422
 20
126.3451706657112
 30
0.0
 10
125.738661205422
 20
126.3451706657112
 30
0.0
 10
125.738661205422
 20
126.3451706657112
 30
0.0
 10
125.738661205422
 20
126.3451706657112
 30
0.0
  0
INSERT
  5
89
330
64
100
AcDbEntity
  8
Ebene 2
100
AcDbBlockReference
  2
block 4
 10
0.0
 20
0.0
 30
0.0
  0
INSERT
  5
DC
330
64
100
AcDbEntity
  8
Ebene 2
100
AcDbBlockReference
  2
block 7
 10
0.0
 20
0.0
 30
0.0
  0
ENDBLK
  5
67
330
64
100
AcDbEntity
  8
0
100
AcDbBlockEnd
  0
BLOCK
  5
8A
330
88
100
AcDbEntity
  8
0
100
AcDbBlockBegin
  2
block 4
 70
     0
 71
     0
 10
0.0
 20
0.0
 30
0.0
  3
block 4
  1

  0
POLYLINE
  5
8C
330
88
100
AcDbEntity
  8
Ebene 2
 62
   250
420
  2301728
370
     5
100
AcDb2dPolyline
 66
     1
 10
0.0
 20
0.0
 30
0.0
  0
VERTEX
  5
8D
330
8C
100
AcDbEntity
  8
Ebene 2
 62
   250
420
  2301728
370
     5
100
AcDbVertex
100
AcDb2dVertex
 10
174.7977145532359
 20
169.4411043042692
 30
0.0
  0
VERTEX
  5
8E
330
8C
100
AcDbEntity
  8
Ebene 2
 62
   250
420
  2301728
370
     5
100
AcDbVertex
100
AcDb2dVertex
 10
175.9294291667264
 20
169.3496369587953
 30
0.0
  0
SEQEND
  5
8F
330
8C
100
AcDbEntity
  8
Ebene 2
370
     5
  0
POLYLINE
  5
90
330
88
100
AcDbEntity
  8
Ebene 2
 62
   250
420
  2301728
370
     5
100
AcDb2dPolyline
 66
     1
 10
0.0
 20
0.0
 30
0.0
  0
VERTEX
  5
91
330
90
100
AcDbEntity
  8
Ebene 2
 62
   250
420
  2301728
370
     5
100
AcDbVertex
100
AcDb2dVertex
 10
175.477087831106
 20
170.1270232678794
 30
0.0
  0
VERTEX
  5
92
330
90
100
AcDbEntity
  8
Ebene 2
 62
   250
420
  2301728
370
     5
100
AcDbVertex
100
AcDb2dVertex
 10
177.5606829551212
 20
169.9582134777393
 30
0.0
  0
SEQEND
  5
93
330
90
100
AcDbEntity
  8
Ebene 2
370
     5
  0
POLYLINE
  5
94
330
88
100
AcDbEntity
  8
Ebene 2
 62
   250
420
  2301728
370
     5
100
AcDb2dPolyline
 66
     1
 10
0.0
 20
0.0
 30
0.0
  0
VERTEX
  5
95
330
94
100
AcDbEntity
  8
Ebene 2
 62
   250
420
  2301728
370
     5
100
AcDbVertex
100
AcDb2dVertex
 10
176.8189534078321
 20
170.7590264515775
 30
0.0
  0
VERTEX
  5
96
330
94
100
AcDbEntity
  8
Ebene 2
 62
   250
420
  2301728
370
     5
100
AcDbVertex
100
AcDb2dVertex
 10
178.7854152080766
 20
170.5998629351596
 30
0.0
  0
SEQEND
  5
97
330
94
100
AcDbEntity
  8
Ebene 2
370
     5
  0
POLYLINE
  5
98
330
88
100
AcDbEntity
  8
Ebene 2
 62
   250
420
  2301728
370
     5
100
AcDb2dPolyline
 66
     1
 10
0.0
 20
0.0
 30
0.0
  0
VERTEX
  5
99
330
98
100
AcDbEntity
  8
Ebene 2
 62
   250
420
  2301728
370
     5
100
AcDbVertex
100
AcDb2dVertex
 10
177.9048482211416
 20
171.4117002218233
 30
0.0
  0
VERTEX
  5
9A
330
98
100
AcDbEntity
  8
Ebene 2
 62
   250
420
  2301728
370
     5
100
AcDbVertex
100
AcDb2dVertex
 10
179.8024080662269
 20
171.2582211167061
 30
0.0
  0
SEQEND
  5
9B
330
98
100
AcDbEntity
  8
Ebene 2
370
     5
  0
POLYLINE
  5
9C
330
88
100
AcDbEntity
  8
Ebene 2
 62
   250
420
  2301728
370
     5
100
AcDb2dPolyline
 66
     1
 10
0.0
 20
0.0
 30
0.0
  0
VERTEX
  5
9D
330
9C
100
AcDbEntity
  8
Ebene 2
 62
   250
420
  2301728
370
     5
100
AcDbVertex
100
AcDb2dVertex
 10
178.8264118713963
 20
172.0778098733252
 30
0.0
  0
VERTEX
  5
9E
330
9C
100
AcDbEntity
  8
Ebene 2
 62
   250
420
  2301728
370
     5
100
AcDbVertex
100
AcDb2dVertex
 10
180.6736732892154
 20
171.9284648855175
 30
0.0
  0
SEQEND
  5
9F
330
9C
100
AcDbEntity
  8
Ebene 2
370
     5
  0
POLYLINE
  5
A0
330
88
100
AcDbEntity
  8
Ebene 2
 62
   250
420
  2301728
370
     5
100
AcDb2dPolyline
 66
     1
 10
0.0
 20
0.0
 30
0.0
  0
VERTEX
  5
A1
330
A0
100
AcDbEntity
  8
Ebene 2
 62
   250
420
  2301728
370
     5
100
AcDbVertex
100
AcDb2dVertex
 10
179.6201623948307
 20
172.754254818101
 30
0.0
  0
VERTEX
  5
A2
330
A0
100
AcDbEntity
  8
Ebene 2
 62
   250
420
  2301728
370
     5
100
AcDbVertex
100
AcDb2dVertex
 10
181.4212595026931
 20
172.6083549280513
 30
0.0
  0
SEQEND
  5
A3
330
A0
100
AcDbEntity
  8
Ebene 2
370
     5
  0
POLYLINE
  5
A4
330
88
100
AcDbEntity
  8
Ebene 2
 62
   250
420
  2301728
370
     5
100
AcDb2dPolyline
 66
     1
 10
0.0
 20
0.0
 30
0.0
  0
VERTEX
  5
A5
330
A4
100
AcDbEntity
  8
Ebene 2
 62
   250
420
  2301728
370
     5
100
AcDbVertex
100
AcDb2dVertex
 10
180.2978131238218
 20
173.4401737817111
 30
0.0
  0
VERTEX
  5
A6
330
A4
100
AcDbEntity
  8
Ebene 2
 62
   250
420
  2301728
370
     5
100
AcDbVertex
100
AcDb2dVertex
 10
182.0565355292612
 20
173.2975467345315
 30
0.0
  0
SEQEND
  5
A7
330
A4
100
AcDbEntity
  8
Ebene 2
370
     5
  0
POLYLINE
  5
A8
330
88
100
AcDbEntity
  8
Ebene 2
 62
   250
420
  2301728
370
     5
100
AcDb2dPolyline
 66
     1
 10
0.0
 20
0.0
 30
0.0
  0
VERTEX
  5
A9
330
A8
100
AcDbEntity
  8
Ebene 2
 62
   250
420
  2301728
370
     5
100
AcDbVertex
100
AcDb2dVertex
 10
180.85522994106
 20
174.1355667641557
 30
0.0
  0
VERTEX
  5
AA
330
A8
100
AcDbEntity
  8
Ebene 2
 62
   250
420
  2301728
370
     5
100
AcDbVertex
100
AcDb2dVertex
 10
182.565720977888
 20
173.9970738342857
 30
0.0
  0
SEQEND
  5
AB
330
A8
100
AcDbEntity
  8
Ebene 2
370
     5
  0
POLYLINE
  5
AC
330
88
100
AcDbEntity
  8
Ebene 2
 62
   250
420
  2301728
370
     5
100
AcDb2dPolyline
 66
     1
 10
0.0
 20
0.0
 30
0.0
  0
VERTEX
  5
AD
330
AC
100
AcDbEntity
  8
Ebene 2
 62
   250
420
  2301728
370
     5
100
AcDbVertex
100
AcDb2dVertex
 10
182.939169574851
 20
174.7074529919774
 30
0.0
  0
VERTEX
  5
AE
330
AC
100
AcDbEntity
  8
Ebene 2
 62
   250
420
  2301728
370
     5
100
AcDbVertex
100
AcDb2dVertex
 10
181.2841446119262
 20
174.8414672947621
 30
0.0
  0
SEQEND
  5
AF
330
AC
100
AcDbEntity
  8
Ebene 2
370
     5
  0
POLYLINE
  5
B0
330
88
100
AcDbEntity
  8
Ebene 2
 62
   250
420
  2301728
370
     5
100
AcDb2dPolyline
 66
     1
 10
0.0
 20
0.0
 30
0.0
  0
VERTEX
  5
B1
330
B0
100
AcDbEntity
  8
Ebene 2
 62
   250
420
  2301728
370
     5
100
AcDbVertex
100
AcDb2dVertex
 10
183.123482304902
 20
175.433162834692
 30
0.0
  0
VERTEX
  5
B2
330
B0
100
AcDbEntity
  8
Ebene 2
 62
   250
420
  2301728
370
     5
100
AcDbVertex
100
AcDb2dVertex
 10
181.5497616490651
 20
175.5606314517366
 30
0.0
  0
SEQEND
  5
B3
330
B0
100
AcDbEntity
  8
Ebene 2
370
     5
  0
POLYLINE
  5
B4
330
88
100
AcDbEntity
  8
Ebene 2
 62
   250
420
  2301728
370
     5
100
AcDb2dPolyline
 66
     1
 10
0.0
 20
0.0
 30
0.0
  0
VERTEX
  5
B5
330
B4
100
AcDbEntity
  8
Ebene 2
 62
   250
420
  2301728
370
     5
100
AcDbVertex
100
AcDb2dVertex
 10
175.4278229331671
 20
176.0562087642193
 30
0.0
  0
VERTEX
  5
B6
330
B4
100
AcDbEntity
  8
Ebene 2
 62
   250
420
  2301728
370
     5
100
AcDbVertex
100
AcDb2dVertex
 10
175.5191180237531
 20
176.0488018040397
 30
0.0
  0
SEQEND
  5
B7
330
B4
100
AcDbEntity
  8
Ebene 2
370
     5
  0
POLYLINE
  5
B8
330
88
100
AcDbEntity
  8
Ebene 2
 62
   250
420
  2301728
370
     5
100
AcDb2dPolyline
 66
     1
 10
0.0
 20
0.0
 30
0.0
  0
VERTEX
  5
B9
330
B8
100
AcDbEntity
  8
Ebene 2
 62
   250
420
  2301728
370
     5
100
AcDbVertex
100
AcDb2dVertex
 10
175.0908923724385
 20
176.824121054469
 30
0.0
  0
VERTEX
  5
BA
330
B8
100
AcDbEntity
  8
Ebene 2
 62
   250
420
  2301728
370
     5
100
AcDbVertex
100
AcDb2dVertex
 10
176.479266768897
 20
176.7118108675594
 30
0.0
  0
SEQEND
  5
BB
330
B8
100
AcDbEntity
  8
Ebene 2
370
     5
  0
POLYLINE
  5
BC
330
88
100
AcDbEntity
  8
Ebene 2
 62
   250
420
  2301728
370
     5
100
AcDb2dPolyline
 66
     1
 10
0.0
 20
0.0
 30
0.0
  0
VERTEX
  5
BD
330
BC
100
AcDbEntity
  8
Ebene 2
 62
   250
420
  2301728
370
     5
100
AcDbVertex
100
AcDb2dVertex
 10
183.0177178037325
 20
176.1824715970486
 30
0.0
  0
VERTEX
  5
BE
330
BC
100
AcDbEntity
  8
Ebene 2
 62
   250
420
  2301728
370
     5
100
AcDbVertex
100
AcDb2dVertex
 10
181.571810274716
 20
176.2996049208193
 30
0.0
  0
SEQEND
  5
BF
330
BC
100
AcDbEntity
  8
Ebene 2
370
     5
  0
POLYLINE
  5
C0
330
88
100
AcDbEntity
  8
Ebene 2
 62
   250
420
  2301728
370
     5
100
AcDb2dPolyline
 66
     1
 10
0.0
 20
0.0
 30
0.0
  0
VERTEX
  5
C1
330
C0
100
AcDbEntity
  8
Ebene 2
 62
   250
420
  2301728
370
     5
100
AcDbVertex
100
AcDb2dVertex
 10
174.6823037783442
 20
177.5977177560193
 30
0.0
  0
VERTEX
  5
C2
330
C0
100
AcDbEntity
  8
Ebene 2
 62
   250
420
  2301728
370
     5
100
AcDbVertex
100
AcDb2dVertex
 10
176.0403613145327
 20
177.4879913924282
 30
0.0
  0
SEQEND
  5
C3
330
C0
100
AcDbEntity
  8
Ebene 2
370
     5
  0
POLYLINE
  5
C4
330
88
100
AcDbEntity
  8
Ebene 2
 62
   250
420
  2301728
370
     5
100
AcDb2dPolyline
 66
     1
 10
0.0
 20
0.0
 30
0.0
  0
VERTEX
  5
C5
330
C4
100
AcDbEntity
  8
Ebene 2
 62
   250
420
  2301728
370
     5
100
AcDbVertex
100
AcDb2dVertex
 10
181.1253256052842
 20
177.0763022103518
 30
0.0
  0
VERTEX
  5
C6
330
C4
100
AcDbEntity
  8
Ebene 2
 62
   250
420
  2301728
370
     5
100
AcDbVertex
100
AcDb2dVertex
 10
182.2201776727644
 20
176.9875909430843
 30
0.0
  0
SEQEND
  5
C7
330
C4
100
AcDbEntity
  8
Ebene 2
370
     5
  0
POLYLINE
  5
C8
330
88
100
AcDbEntity
  8
Ebene 2
 62
   250
420
  2301728
370
     5
100
AcDb2dPolyline
 66
     1
 10
0.0
 20
0.0
 30
0.0
  0
VERTEX
  5
C9
330
C8
100
AcDbEntity
  8
Ebene 2
 62
   250
420
  2301728
370
     5
100
AcDbVertex
100
AcDb2dVertex
 10
174.1831091132156
 20
178.3788936726371
 30
0.0
  0
VERTEX
  5
CA
330
C8
100
AcDbEntity
  8
Ebene 2
 62
   250
420
  2301728
370
     5
100
AcDbVertex
100
AcDb2dVertex
 10
175.492246261241
 20
178.2727846616919
 30
0.0
  0
SEQEND
  5
CB
330
C8
100
AcDbEntity
  8
Ebene 2
370
     5
  0
POLYLINE
  5
CC
330
88
100
AcDbEntity
  8
Ebene 2
 62
   250
420
  2301728
370
     5
100
AcDb2dPolyline
 66
     1
 10
0.0
 20
0.0
 30
0.0
  0
VERTEX
  5
CD
330
CC
100
AcDbEntity
  8
Ebene 2
 62
   250
420
  2301728
370
     5
100
AcDbVertex
100
AcDb2dVertex
 10
173.5175162263774
 20
179.1733332156231
 30
0.0
  0
VERTEX
  5
CE
330
CC
100
AcDbEntity
  8
Ebene 2
 62
   250
420
  2301728
370
     5
100
AcDbVertex
100
AcDb2dVertex
 10
174.7164102461481
 20
179.0763537137365
 30
0.0
  0
SEQEND
  5
CF
330
CC
100
AcDbEntity
  8
Ebene 2
370
     5
  0
INSERT
  5
D1
330
88
100
AcDbEntity
  8
Ebene 2
100
AcDbBlockReference
  2
block 5
 10
0.0
 20
0.0
 30
0.0
  0
INSERT
  5
D7
330
88
100
AcDbEntity
  8
Ebene 2
100
AcDbBlockReference
  2
block 6
 10
0.0
 20
0.0
 30
0.0
  0
ENDBLK
  5
8B
330
88
100
AcDbEntity
  8
0
100
AcDbBlockEnd
  0
BLOCK
  5
D2
330
D0
100
AcDbEntity
  8
0
100
AcDbBlockBegin
  2
block 5
 70
     0
 71
     0
 10
0.0
 20
0.0
 30
0.0
  3
block 5
  1

  0
SPLINE
  5
D4
330
D0
100
AcDbEntity
  8
Ebene 2
 62
   250
420
  2301728
370
     5
100
AcDbSpline
210
0.0
220
0.0
230
1.0
 70
    11
 71
     3
 72
    14
 73
    10
 74
     0
 42
0.0000000001
 43
0.0000000001
 40
0.0
 40
0.0
 40
0.0
 40
0.0
 40
1.0
 40
1.0
 40
1.0
 40
2.0
 40
2.0
 40
2.0
 40
3.0
 40
3.0
 40
3.0
 40
3.0
 10
175.4502160685939
 20
175.9979866121098
 30
0.0
 10
175.4502160685939
 20
175.9979866121098
 30
0.0
 10
175.869139955962
 20
176.3183807036002
 30
0.0
 10
176.4968367674626
 20
176.6785656741951
 30
0.0
 10
175.8377895663646
 20
177.9696160589913
 30
0.0
 10
174.5444998680258
 20
179.9283263892804
 30
0.0
 10
172.8360758898526
 20
179.741429835911
 30
0.0
 10
174.4659516391442
 20
178.6856796279836
 30
0.0
 10
175.4502160685939
 20
175.9979866121098
 30
0.0
 10
175.4502160685939
 20
175.9979866121098
 30
0.0
  0
SPLINE
  5
D5
330
D0
100
AcDbEntity
  8
Ebene 2
 62
   250
420
  2301728
370
     5
100
AcDbSpline
210
0.0
220
0.0
230
1.0
 70
    11
 71
     3
 72
    20
 73
    16
 74
     0
 42
0.0000000001
 43
0.0000000001
 40
0.0
 40
0.0
 40
0.0
 40
0.0
 40
1.0
 40
1.0
 40
1.0
 40
2.0
 40
2.0
 40
2.0
 40
3.0
 40
3.0
 40
3.0
 40
4.0
 40
4.0
 40
4.0
 40
5.0
 40
5.0
 40
5.0
 40
5.0
 10
182.7314301800459
 20
176.6062186212779
 30
0.0
 10
182.2222447314192
 20
177.1241890691875
 30
0.0
 10
181.5738773333708
 20
177.2911040555607
 30
0.0
 10
180.8982936630345
 20
177.2606149404027
 30
0.0
 10
181.0023356153249
 20
177.1870621032703
 30
0.0
 10
181.103621489409
 20
177.1057577961824
 30
0.0
 10
181.1987061875288
 20
177.0089505491837
 30
0.0
 10
182.9519164365555
 20
175.2278350083175
 30
0.0
 10
178.6713824722881
 20
171.0404909384029
 30
0.0
 10
174.5493230048869
 20
169.7978441771062
 30
0.0
 10
174.7019408355646
 20
169.5764966461571
 30
0.0
 10
174.8545586662423
 20
169.3563548994234
 30
0.0
 10
175.0085545360232
 20
169.1379357015686
 30
0.0
 10
179.4093224120435
 20
169.884316130831
 30
0.0
 10
184.6379472793019
 20
174.6697291715277
 30
0.0
 10
182.7314301800459
 20
176.6062186212779
 30
0.0
  0
ENDBLK
  5
D3
330
D0
100
AcDbEntity
  8
0
100
AcDbBlockEnd
  0
BLOCK
  5
D8
330
D6
100
AcDbEntity
  8
0
100
AcDbBlockBegin
  2
block 6
 70
     0
 71
     0
 10
0.0
 20
0.0
 30
0.0
  3
block 6
  1

  0
SPLINE
  5
DA
330
D6
100
AcDbEntity
  8
Ebene 2
 62
   250
420
  2301728
370
     5
100
AcDbSpline
210
0.0
220
0.0
230
1.0
 70
    11
 71
     3
 72
    29
 73
    25
 74
     0
 42
0.0000000001
 43
0.0000000001
 40
0.0
 40
0.0
 40
0.0
 40
0.0
 40
1.0
 40
1.0
 40
1.0
 40
2.0
 40
2.0
 40
2.0
 40
3.0
 40
3.0
 40
3.0
 40
4.0
 40
4.0
 40
4.0
 40
5.0
 40
5.0
 40
5.0
 40
6.0
 40
6.0
 40
6.0
 40
7.0
 40
7.0
 40
7.0
 40
8.0
 40
8.0
 40
8.0
 40
8.0
 10
175.4502160685939
 20
175.9979866121098
 30
0.0
 10
175.4502160685939
 20
175.9979866121098
 30
0.0
 10
179.2928781078244
 20
178.9468180380371
 30
0.0
 10
181.1987061875288
 20
177.0089505491837
 30
0.0
 10
181.1987061875288
 20
177.0089505491837
 30
0.0
 10
181.1987061875288
 20
177.0089505491837
 30
0.0
 10
181.1987061875288
 20
177.0089505491837
 30
0.0
 10
183.1055677965606
 20
175.0722888445455
 30
0.0
 10
177.8769429293021
 20
170.2868758038488
 30
0.0
 10
173.475830543506
 20
169.5404953745864
 30
0.0
 10
173.475830543506
 20
169.5404953745864
 30
0.0
 10
173.475830543506
 20
169.5404953745864
 30
0.0
 10
173.475830543506
 20
169.5404953745864
 30
0.0
 10
170.4827296113889
 20
173.7870951259379
 30
0.0
 10
167.7035692500412
 20
178.6837848242167
 30
0.0
 10
170.6181219532768
 20
179.9600212886536
 30
0.0
 10
170.6181219532768
 20
179.9600212886536
 30
0.0
 10
170.6181219532768
 20
179.9600212886536
 30
0.0
 10
170.6181219532768
 20
179.9600212886536
 30
0.0
 10
173.5330191662882
 20
181.2360854982026
 30
0.0
 10
175.4502160685939
 20
175.9979866121098
 30
0.0
 10
175.4502160685939
 20
175.9979866121098
 30
0.0
 10
175.4502160685939
 20
175.9979866121098
 30
0.0
 10
175.4502160685939
 20
175.9979866121098
 30
0.0
 10
175.4502160685939
 20
175.9979866121098
 30
0.0
  0
ENDBLK
  5
D9
330
D6
100
AcDbEntity
  8
0
100
AcDbBlockEnd
  0
BLOCK
  5
DD
330
DB
100
AcDbEntity
  8
0
100
AcDbBlockBegin
  2
block 7
 70
     0
 71
     0
 10
0.0
 20
0.0
 30
0.0
  3
block 7
  1

  0
INSERT
  5
E0
330
DB
100
AcDbEntity
  8
Ebene 2
100
AcDbBlockReference
  2
block 8
 10
0.0
 20
0.0
 30
0.0
  0
INSERT
  5
104
330
DB
100
AcDbEntity
  8
Ebene 2
100
AcDbBlockReference
  2
block 15
 10
0.0
 20
0.0
 30
0.0
  0
ENDBLK
  5
DE
330
DB
100
AcDbEntity
  8
0
100
AcDbBlockEnd
  0
BLOCK
  5
E1
330
DF
100
AcDbEntity
  8
0
100
AcDbBlockBegin
  2
block 8
 70
     0
 71
     0
 10
0.0
 20
0.0
 30
0.0
  3
block 8
  1

  0
INSERT
  5
E4
330
DF
100
AcDbEntity
  8
Ebene 2
100
AcDbBlockReference
  2
block 9
 10
0.0
 20
0.0
 30
0.0
  0
INSERT
  5
F4
330
DF
100
AcDbEntity
  8
Ebene 2
100
AcDbBlockReference
  2
block 12
 10
0.0
 20
0.0
 30
0.0
  0
ENDBLK
  5
E2
330
DF
100
AcDbEntity
  8
0
100
AcDbBlockEnd
  0
BLOCK
  5
E5
330
E3
100
AcDbEntity
  8
0
100
AcDbBlockBegin
  2
block 9
 70
     0
 71
     0
 10
0.0
 20
0.0
 30
0.0
  3
block 9
  1

  0
INSERT
  5
E8
330
E3
100
AcDbEntity
  8
Ebene 2
100
AcDbBlockReference
  2
block 10
 10
0.0
 20
0.0
 30
0.0
  0
INSERT
  5
EE
330
E3
100
AcDbEntity
  8
Ebene 2
100
AcDbBlockReference
  2
block 11
 10
0.0
 20
0.0
 30
0.0
  0
ENDBLK
  5
E6
330
E3
100
AcDbEntity
  8
0
100
AcDbBlockEnd
  0
BLOCK
  5
E9
330
E7
100
AcDbEntity
  8
0
100
AcDbBlockBegin
  2
block 10
 70
     0
 71
     0
 10
0.0
 20
0.0
 30
0.0
  3
block 10
  1

  0
SPLINE
  5
EB
330
E7
100
AcDbEntity
  8
Ebene 2
 62
   250
420
  2301728
370
     5
100
AcDbSpline
210
0.0
220
0.0
230
1.0
 70
    11
 71
     3
 72
    29
 73
    25
 74
     0
 42
0.0000000001
 43
0.0000000001
 40
0.0
 40
0.0
 40
0.0
 40
0.0
 40
1.0
 40
1.0
 40
1.0
 40
2.0
 40
2.0
 40
2.0
 40
3.0
 40
3.0
 40
3.0
 40
4.0
 40
4.0
 40
4.0
 40
5.0
 40
5.0
 40
5.0
 40
6.0
 40
6.0
 40
6.0
 40
7.0
 40
7.0
 40
7.0
 40
8.0
 40
8.0
 40
8.0
 40
8.0
 10
155.3249884959091
 20
122.6496143007457
 30
0.0
 10
156.3271674337001
 20
122.5590082297113
 30
0.0
 10
156.2207139129791
 20
125.5803589634437
 30
0.0
 10
154.4561348413511
 20
125.5803589634437
 30
0.0
 10
152.6922447892748
 20
125.5803589634437
 30
0.0
 10
152.3587593263041
 20
118.2767517165649
 30
0.0
 10
157.3024746089791
 20
118.2767517165649
 30
0.0
 10
162.2461898916541
 20
118.2767517165649
 30
0.0
 10
164.1437497367394
 20
122.0729049360629
 30
0.0
 10
166.9769981328871
 20
122.0729049360629
 30
0.0
 10
169.8092129997074
 20
122.0729049360629
 30
0.0
 10
171.5193595267596
 20
121.0783052133393
 30
0.0
 10
171.5193595267596
 20
117.6383751020146
 30
0.0
 10
170.7111395927418
 20
119.3247504545368
 30
0.0
 10
169.8092129997074
 20
120.7975297460655
 30
0.0
 10
166.9769981328871
 20
120.7975297460655
 30
0.0
 10
164.1437497367394
 20
120.7975297460655
 30
0.0
 10
162.2461898916541
 20
117.0006875070159
 30
0.0
 10
157.3024746089791
 20
117.0006875070159
 30
0.0
 10
152.3587593263041
 20
117.0006875070159
 30
0.0
 10
151.1295484462634
 20
126.8402312135303
 30
0.0
 10
154.0954331060926
 20
126.8402312135303
 30
0.0
 10
157.0616622756976
 20
126.8402312135303
 30
0.0
 10
157.4626716547243
 20
122.1638555168731
 30
0.0
 10
155.3249884959091
 20
122.6496143007457
 30
0.0
  0
SPLINE
  5
EC
330
E7
100
AcDbEntity
  8
Ebene 2
 62
   250
420
  2301728
370
     5
100
AcDbSpline
210
0.0
220
0.0
230
1.0
 70
    11
 71
     3
 72
    29
 73
    25
 74
     0
 42
0.0000000001
 43
0.0000000001
 40
0.0
 40
0.0
 40
0.0
 40
0.0
 40
1.0
 40
1.0
 40
1.0
 40
2.0
 40
2.0
 40
2.0
 40
3.0
 40
3.0
 40
3.0
 40
4.0
 40
4.0
 40
4.0
 40
5.0
 40
5.0
 40
5.0
 40
6.0
 40
6.0
 40
6.0
 40
7.0
 40
7.0
 40
7.0
 40
8.0
 40
8.0
 40
8.0
 40
8.0
 10
187.7140750673859
 20
122.6496143007457
 30
0.0
 10
186.7118961295949
 20
122.5590082297113
 30
0.0
 10
186.8183496503159
 20
125.5803589634437
 30
0.0
 10
188.5825842121681
 20
125.5803589634437
 30
0.0
 10
190.3468187740202
 20
125.5803589634437
 30
0.0
 10
190.6806487467667
 20
118.2767517165649
 30
0.0
 10
185.7365889543159
 20
118.2767517165649
 30
0.0
 10
180.7925291618651
 20
118.2767517165649
 30
0.0
 10
178.8956583363314
 20
122.0729049360629
 30
0.0
 10
176.0627544499595
 20
122.0729049360629
 30
0.0
 10
173.2298505635876
 20
122.0729049360629
 30
0.0
 10
171.5193595267596
 20
121.0783052133393
 30
0.0
 10
171.5193595267596
 20
117.6383751020146
 30
0.0
 10
172.328268480329
 20
119.3247504545368
 30
0.0
 10
173.2298505635876
 20
120.7975297460655
 30
0.0
 10
176.0627544499595
 20
120.7975297460655
 30
0.0
 10
178.8956583363314
 20
120.7975297460655
 30
0.0
 10
180.7925291618651
 20
117.0006875070159
 30
0.0
 10
185.7365889543159
 20
117.0006875070159
 30
0.0
 10
190.6806487467667
 20
117.0006875070159
 30
0.0
 10
191.9095151170316
 20
126.8402312135303
 30
0.0
 10
188.9432859474266
 20
126.8402312135303
 30
0.0
 10
185.9774012875974
 20
126.8402312135303
 30
0.0
 10
185.5763919085707
 20
122.1638555168731
 30
0.0
 10
187.7140750673859
 20
122.6496143007457
 30
0.0
  0
ENDBLK
  5
EA
330
E7
100
AcDbEntity
  8
0
100
AcDbBlockEnd
  0
BLOCK
  5
EF
330
ED
100
AcDbEntity
  8
0
100
AcDbBlockBegin
  2
block 11
 70
     0
 71
     0
 10
0.0
 20
0.0
 30
0.0
  3
block 11
  1

  0
SPLINE
  5
F1
330
ED
100
AcDbEntity
  8
Ebene 2
 62
   250
420
  2301728
370
     5
100
AcDbSpline
210
0.0
220
0.0
230
1.0
 70
    11
 71
     3
 72
    29
 73
    25
 74
     0
 42
0.0000000001
 43
0.0000000001
 40
0.0
 40
0.0
 40
0.0
 40
0.0
 40
1.0
 40
1.0
 40
1.0
 40
2.0
 40
2.0
 40
2.0
 40
3.0
 40
3.0
 40
3.0
 40
4.0
 40
4.0
 40
4.0
 40
5.0
 40
5.0
 40
5.0
 40
6.0
 40
6.0
 40
6.0
 40
7.0
 40
7.0
 40
7.0
 40
8.0
 40
8.0
 40
8.0
 40
8.0
 10
117.2873196404783
 20
122.6496143007457
 30
0.0
 10
118.2894985782693
 20
122.5590082297113
 30
0.0
 10
118.1830450575483
 20
125.5803589634437
 30
0.0
 10
116.4188104956961
 20
125.5803589634437
 30
0.0
 10
114.654575933844
 20
125.5803589634437
 30
0.0
 10
114.3214349806491
 20
118.2767517165649
 30
0.0
 10
119.2648057535483
 20
118.2767517165649
 30
0.0
 10
124.2088655459991
 20
118.2767517165649
 30
0.0
 10
126.1060808813086
 20
122.0729049360629
 30
0.0
 10
128.9393292774563
 20
122.0729049360629
 30
0.0
 10
131.7718886540524
 20
122.0729049360629
 30
0.0
 10
133.4816906713288
 20
121.0783052133393
 30
0.0
 10
133.4816906713288
 20
117.6383751020146
 30
0.0
 10
132.6738152470868
 20
119.3247504545368
 30
0.0
 10
131.7718886540524
 20
120.7975297460655
 30
0.0
 10
128.9393292774563
 20
120.7975297460655
 30
0.0
 10
126.1060808813086
 20
120.7975297460655
 30
0.0
 10
124.2088655459991
 20
117.0006875070159
 30
0.0
 10
119.2648057535483
 20
117.0006875070159
 30
0.0
 10
114.3214349806491
 20
117.0006875070159
 30
0.0
 10
113.0915350810568
 20
126.8402312135303
 30
0.0
 10
116.0581087604376
 20
126.8402312135303
 30
0.0
 10
119.0243379300426
 20
126.8402312135303
 30
0.0
 10
119.4253473090693
 20
122.1638555168731
 30
0.0
 10
117.2873196404783
 20
122.6496143007457
 30
0.0
  0
SPLINE
  5
F2
330
ED
100
AcDbEntity
  8
Ebene 2
 62
   250
420
  2301728
370
     5
100
AcDbSpline
210
0.0
220
0.0
230
1.0
 70
    11
 71
     3
 72
    29
 73
    25
 74
     0
 42
0.0000000001
 43
0.0000000001
 40
0.0
 40
0.0
 40
0.0
 40
0.0
 40
1.0
 40
1.0
 40
1.0
 40
2.0
 40
2.0
 40
2.0
 40
3.0
 40
3.0
 40
3.0
 40
4.0
 40
4.0
 40
4.0
 40
5.0
 40
5.0
 40
5.0
 40
6.0
 40
6.0
 40
6.0
 40
7.0
 40
7.0
 40
7.0
 40
8.0
 40
8.0
 40
8.0
 40
8.0
 10
149.6767507217309
 20
122.6496143007457
 30
0.0
 10
148.6745717839399
 20
122.5590082297113
 30
0.0
 10
148.7806807948851
 20
125.5803589634437
 30
0.0
 10
150.5449153567372
 20
125.5803589634437
 30
0.0
 10
152.3091499185894
 20
125.5803589634437
 30
0.0
 10
152.6429798913359
 20
118.2767517165649
 30
0.0
 10
147.6989200988851
 20
118.2767517165649
 30
0.0
 10
142.7548603064343
 20
118.2767517165649
 30
0.0
 10
140.8576449711248
 20
122.0729049360629
 30
0.0
 10
138.0250855945287
 20
122.0729049360629
 30
0.0
 10
135.1921817081568
 20
122.0729049360629
 30
0.0
 10
133.4816906713288
 20
121.0783052133393
 30
0.0
 10
133.4816906713288
 20
117.6383751020146
 30
0.0
 10
134.2902551151224
 20
119.3247504545368
 30
0.0
 10
135.1921817081568
 20
120.7975297460655
 30
0.0
 10
138.0250855945287
 20
120.7975297460655
 30
0.0
 10
140.8576449711248
 20
120.7975297460655
 30
0.0
 10
142.7548603064343
 20
117.0006875070159
 30
0.0
 10
147.6989200988851
 20
117.0006875070159
 30
0.0
 10
152.6429798913359
 20
117.0006875070159
 30
0.0
 10
153.8725352811524
 20
126.8402312135303
 30
0.0
 10
150.9059616017716
 20
126.8402312135303
 30
0.0
 10
147.9397324321666
 20
126.8402312135303
 30
0.0
 10
147.5387230531399
 20
122.1638555168731
 30
0.0
 10
149.6767507217309
 20
122.6496143007457
 30
0.0
  0
ENDBLK
  5
F0
330
ED
100
AcDbEntity
  8
0
100
AcDbBlockEnd
  0
BLOCK
  5
F5
330
F3
100
AcDbEntity
  8
0
100
AcDbBlockBegin
  2
block 12
 70
     0
 71
     0
 10
0.0
 20
0.0
 30
0.0
  3
block 12
  1

  0
INSERT
  5
F8
330
F3
100
AcDbEntity
  8
Ebene 2
100
AcDbBlockReference
  2
block 13
 10
0.0
 20
0.0
 30
0.0
  0
INSERT
  5
FE
330
F3
100
AcDbEntity
  8
Ebene 2
100
AcDbBlockReference
  2
block 14
 10
0.0
 20
0.0
 30
0.0
  0
ENDBLK
  5
F6
330
F3
100
AcDbEntity
  8
0
100
AcDbBlockEnd
  0
BLOCK
  5
F9
330
F7
100
AcDbEntity
  8
0
100
AcDbBlockBegin
  2
block 13
 70
     0
 71
     0
 10
0.0
 20
0.0
 30
0.0
  3
block 13
  1

  0
SPLINE
  5
FB
330
F7
100
AcDbEntity
  8
Ebene 2
 62
   250
420
  2301728
370
     5
100
AcDbSpline
210
0.0
220
0.0
230
1.0
 70
    11
 71
     3
 72
    29
 73
    25
 74
     0
 42
0.0000000001
 43
0.0000000001
 40
0.0
 40
0.0
 40
0.0
 40
0.0
 40
1.0
 40
1.0
 40
1.0
 40
2.0
 40
2.0
 40
2.0
 40
3.0
 40
3.0
 40
3.0
 40
4.0
 40
4.0
 40
4.0
 40
5.0
 40
5.0
 40
5.0
 40
6.0
 40
6.0
 40
6.0
 40
7.0
 40
7.0
 40
7.0
 40
8.0
 40
8.0
 40
8.0
 40
8.0
 10
149.6767507217309
 20
182.3521249168943
 30
0.0
 10
148.6745717839399
 20
182.4430754977045
 30
0.0
 10
148.7810253046609
 20
179.4213802541963
 30
0.0
 10
150.545259866513
 20
179.4213802541963
 30
0.0
 10
152.3094944283652
 20
179.4213802541963
 30
0.0
 10
152.6429798913359
 20
186.725159755963
 30
0.0
 10
147.6992646086609
 20
186.725159755963
 30
0.0
 10
142.7552048162101
 20
186.725159755963
 30
0.0
 10
140.8576449711248
 20
182.929006536465
 30
0.0
 10
138.0250855945287
 20
182.929006536465
 30
0.0
 10
135.1921817081568
 20
182.929006536465
 30
0.0
 10
133.4820351811046
 20
183.9236062591886
 30
0.0
 10
133.4820351811046
 20
187.3628473509617
 30
0.0
 10
134.2905996248982
 20
185.6775055277669
 30
0.0
 10
135.1921817081568
 20
184.2043817264624
 30
0.0
 10
138.0250855945287
 20
184.2043817264624
 30
0.0
 10
140.8576449711248
 20
184.2043817264624
 30
0.0
 10
142.7552048162101
 20
188.0007072008483
 30
0.0
 10
147.6992646086609
 20
188.0007072008483
 30
0.0
 10
152.6429798913359
 20
188.0007072008483
 30
0.0
 10
153.8728797909282
 20
178.1611634943339
 30
0.0
 10
150.9059616017716
 20
178.1611634943339
 30
0.0
 10
147.9397324321666
 20
178.1611634943339
 30
0.0
 10
147.5387230531399
 20
182.8380559556548
 30
0.0
 10
149.6767507217309
 20
182.3521249168943
 30
0.0
  0
SPLINE
  5
FC
330
F7
100
AcDbEntity
  8
Ebene 2
 62
   250
420
  2301728
370
     5
100
AcDbSpline
210
0.0
220
0.0
230
1.0
 70
    11
 71
     3
 72
    29
 73
    25
 74
     0
 42
0.0000000001
 43
0.0000000001
 40
0.0
 40
0.0
 40
0.0
 40
0.0
 40
1.0
 40
1.0
 40
1.0
 40
2.0
 40
2.0
 40
2.0
 40
3.0
 40
3.0
 40
3.0
 40
4.0
 40
4.0
 40
4.0
 40
5.0
 40
5.0
 40
5.0
 40
6.0
 40
6.0
 40
6.0
 40
7.0
 40
7.0
 40
7.0
 40
8.0
 40
8.0
 40
8.0
 40
8.0
 10
117.2873196404783
 20
182.3521249168943
 30
0.0
 10
118.2898430880451
 20
182.4430754977045
 30
0.0
 10
118.1830450575483
 20
179.4213802541963
 30
0.0
 10
116.4188104956961
 20
179.4213802541963
 30
0.0
 10
114.654575933844
 20
179.4213802541963
 30
0.0
 10
114.3214349806491
 20
186.725159755963
 30
0.0
 10
119.2651502633241
 20
186.725159755963
 30
0.0
 10
124.2088655459991
 20
186.725159755963
 30
0.0
 10
126.1060808813086
 20
182.929006536465
 30
0.0
 10
128.9393292774563
 20
182.929006536465
 30
0.0
 10
131.7718886540524
 20
182.929006536465
 30
0.0
 10
133.4820351811046
 20
183.9236062591886
 30
0.0
 10
133.4820351811046
 20
187.3628473509617
 30
0.0
 10
132.6738152470868
 20
185.6775055277669
 30
0.0
 10
131.7718886540524
 20
184.2043817264624
 30
0.0
 10
128.9393292774563
 20
184.2043817264624
 30
0.0
 10
126.1060808813086
 20
184.2043817264624
 30
0.0
 10
124.2088655459991
 20
188.0007072008483
 30
0.0
 10
119.2651502633241
 20
188.0007072008483
 30
0.0
 10
114.3214349806491
 20
188.0007072008483
 30
0.0
 10
113.0915350810568
 20
178.1611634943339
 30
0.0
 10
116.0584532702134
 20
178.1611634943339
 30
0.0
 10
119.0246824398184
 20
178.1611634943339
 30
0.0
 10
119.4253473090693
 20
182.8380559556548
 30
0.0
 10
117.2873196404783
 20
182.3521249168943
 30
0.0
  0
ENDBLK
  5
FA
330
F7
100
AcDbEntity
  8
0
100
AcDbBlockEnd
  0
BLOCK
  5
FF
330
FD
100
AcDbEntity
  8
0
100
AcDbBlockBegin
  2
block 14
 70
     0
 71
     0
 10
0.0
 20
0.0
 30
0.0
  3
block 14
  1

  0
SPLINE
  5
101
330
FD
100
AcDbEntity
  8
Ebene 2
 62
   250
420
  2301728
370
     5
100
AcDbSpline
210
0.0
220
0.0
230
1.0
 70
    11
 71
     3
 72
    29
 73
    25
 74
     0
 42
0.0000000001
 43
0.0000000001
 40
0.0
 40
0.0
 40
0.0
 40
0.0
 40
1.0
 40
1.0
 40
1.0
 40
2.0
 40
2.0
 40
2.0
 40
3.0
 40
3.0
 40
3.0
 40
4.0
 40
4.0
 40
4.0
 40
5.0
 40
5.0
 40
5.0
 40
6.0
 40
6.0
 40
6.0
 40
7.0
 40
7.0
 40
7.0
 40
8.0
 40
8.0
 40
8.0
 40
8.0
 10
187.7140750673859
 20
182.3521249168943
 30
0.0
 10
186.7118961295949
 20
182.4430754977045
 30
0.0
 10
186.8183496503159
 20
179.4213802541963
 30
0.0
 10
188.5829287219439
 20
179.4213802541963
 30
0.0
 10
190.3468187740202
 20
179.4213802541963
 30
0.0
 10
190.6806487467667
 20
186.725159755963
 30
0.0
 10
185.7365889543159
 20
186.725159755963
 30
0.0
 10
180.7925291618651
 20
186.725159755963
 30
0.0
 10
178.8956583363314
 20
182.929006536465
 30
0.0
 10
176.0627544499595
 20
182.929006536465
 30
0.0
 10
173.2298505635876
 20
182.929006536465
 30
0.0
 10
171.5197040365354
 20
183.9236062591886
 30
0.0
 10
171.5197040365354
 20
187.3628473509617
 30
0.0
 10
172.328268480329
 20
185.6775055277669
 30
0.0
 10
173.2298505635876
 20
184.2043817264624
 30
0.0
 10
176.0627544499595
 20
184.2043817264624
 30
0.0
 10
178.8956583363314
 20
184.2043817264624
 30
0.0
 10
180.7925291618651
 20
188.0007072008483
 30
0.0
 10
185.7365889543159
 20
188.0007072008483
 30
0.0
 10
190.6806487467667
 20
188.0007072008483
 30
0.0
 10
191.9098596268074
 20
178.1611634943339
 30
0.0
 10
188.9432859474266
 20
178.1611634943339
 30
0.0
 10
185.9774012875974
 20
178.1611634943339
 30
0.0
 10
185.5763919085707
 20
182.8380559556548
 30
0.0
 10
187.7140750673859
 20
182.3521249168943
 30
0.0
  0
SPLINE
  5
102
330
FD
100
AcDbEntity
  8
Ebene 2
 62
   250
420
  2301728
370
     5
100
AcDbSpline
210
0.0
220
0.0
230
1.0
 70
    11
 71
     3
 72
    29
 73
    25
 74
     0
 42
0.0000000001
 43
0.0000000001
 40
0.0
 40
0.0
 40
0.0
 40
0.0
 40
1.0
 40
1.0
 40
1.0
 40
2.0
 40
2.0
 40
2.0
 40
3.0
 40
3.0
 40
3.0
 40
4.0
 40
4.0
 40
4.0
 40
5.0
 40
5.0
 40
5.0
 40
6.0
 40
6.0
 40
6.0
 40
7.0
 40
7.0
 40
7.0
 40
8.0
 40
8.0
 40
8.0
 40
8.0
 10
155.3249884959091
 20
182.3521249168943
 30
0.0
 10
156.3271674337001
 20
182.4430754977045
 30
0.0
 10
156.2210584227549
 20
179.4213802541963
 30
0.0
 10
154.4564793511269
 20
179.4213802541963
 30
0.0
 10
152.6922447892748
 20
179.4213802541963
 30
0.0
 10
152.3587593263041
 20
186.725159755963
 30
0.0
 10
157.3028191187549
 20
186.725159755963
 30
0.0
 10
162.2465344014299
 20
186.725159755963
 30
0.0
 10
164.1437497367394
 20
182.929006536465
 30
0.0
 10
166.9769981328871
 20
182.929006536465
 30
0.0
 10
169.8092129997074
 20
182.929006536465
 30
0.0
 10
171.5197040365354
 20
183.9236062591886
 30
0.0
 10
171.5197040365354
 20
187.3628473509617
 30
0.0
 10
170.7111395927418
 20
185.6775055277669
 30
0.0
 10
169.8092129997074
 20
184.2043817264624
 30
0.0
 10
166.9769981328871
 20
184.2043817264624
 30
0.0
 10
164.1437497367394
 20
184.2043817264624
 30
0.0
 10
162.2465344014299
 20
188.0007072008483
 30
0.0
 10
157.3028191187549
 20
188.0007072008483
 30
0.0
 10
152.3587593263041
 20
188.0007072008483
 30
0.0
 10
151.1295484462634
 20
178.1611634943339
 30
0.0
 10
154.0954331060926
 20
178.1611634943339
 30
0.0
 10
157.0620067854734
 20
178.1611634943339
 30
0.0
 10
157.4630161645001
 20
182.8380559556548
 30
0.0
 10
155.3249884959091
 20
182.3521249168943
 30
0.0
  0
ENDBLK
  5
100
330
FD
100
AcDbEntity
  8
0
100
AcDbBlockEnd
  0
BLOCK
  5
105
330
103
100
AcDbEntity
  8
0
100
AcDbBlockBegin
  2
block 15
 70
     0
 71
     0
 10
0.0
 20
0.0
 30
0.0
  3
block 15
  1

  0
INSERT
  5
108
330
103
100
AcDbEntity
  8
Ebene 2
100
AcDbBlockReference
  2
block 16
 10
0.0
 20
0.0
 30
0.0
  0
INSERT
  5
10E
330
103
100
AcDbEntity
  8
Ebene 2
100
AcDbBlockReference
  2
block 17
 10
0.0
 20
0.0
 30
0.0
  0
ENDBLK
  5
106
330
103
100
AcDbEntity
  8
0
100
AcDbBlockEnd
  0
BLOCK
  5
109
330
107
100
AcDbEntity
  8
0
100
AcDbBlockBegin
  2
block 16
 70
     0
 71
     0
 10
0.0
 20
0.0
 30
0.0
  3
block 16
  1

  0
SPLINE
  5
10B
330
107
100
AcDbEntity
  8
Ebene 2
 62
   250
420
  2301728
370
     5
100
AcDbSpline
210
0.0
220
0.0
230
1.0
 70
    11
 71
     3
 72
    29
 73
    25
 74
     0
 42
0.0000000001
 43
0.0000000001
 40
0.0
 40
0.0
 40
0.0
 40
0.0
 40
1.0
 40
1.0
 40
1.0
 40
2.0
 40
2.0
 40
2.0
 40
3.0
 40
3.0
 40
3.0
 40
4.0
 40
4.0
 40
4.0
 40
5.0
 40
5.0
 40
5.0
 40
6.0
 40
6.0
 40
6.0
 40
7.0
 40
7.0
 40
7.0
 40
8.0
 40
8.0
 40
8.0
 40
8.0
 10
194.3269402137934
 20
129.6417847103047
 30
0.0
 10
194.4265035389985
 20
131.0563418497238
 30
0.0
 10
191.1240328282164
 20
130.9061355874767
 30
0.0
 10
191.1240328282164
 20
128.4156744182461
 30
0.0
 10
191.1240328282164
 20
125.9259022685672
 30
0.0
 10
199.1066688431894
 20
125.4549574050539
 30
0.0
 10
199.1066688431894
 20
132.4333474235811
 30
0.0
 10
199.1066688431894
 20
139.4120819518841
 30
0.0
 10
194.9577376132762
 20
142.0899564391477
 30
0.0
 10
194.9577376132762
 20
146.088336897038
 30
0.0
 10
194.9577376132762
 20
150.0867173549283
 30
0.0
 10
196.0446659559131
 20
152.5006973539321
 30
0.0
 10
199.8036121196251
 20
152.5006973539321
 30
0.0
 10
197.961518348443
 20
151.3593364667194
 30
0.0
 10
196.3519686759232
 20
150.0867173549283
 30
0.0
 10
196.3519686759232
 20
146.088336897038
 30
0.0
 10
196.3519686759232
 20
142.0899564391477
 30
0.0
 10
200.5008999058365
 20
139.4120819518841
 30
0.0
 10
200.5008999058365
 20
132.4333474235811
 30
0.0
 10
200.5008999058365
 20
125.4549574050539
 30
0.0
 10
189.7459937250317
 20
123.7193171545928
 30
0.0
 10
189.7459937250317
 20
127.9064889696194
 30
0.0
 10
189.7459937250317
 20
132.0933162748702
 30
0.0
 10
194.8581742880711
 20
132.6593458365033
 30
0.0
 10
194.3269402137934
 20
129.6417847103047
 30
0.0
  0
SPLINE
  5
10C
330
107
100
AcDbEntity
  8
Ebene 2
 62
   250
420
  2301728
370
     5
100
AcDbSpline
210
0.0
220
0.0
230
1.0
 70
    11
 71
     3
 72
    29
 73
    25
 74
     0
 42
0.0000000001
 43
0.0000000001
 40
0.0
 40
0.0
 40
0.0
 40
0.0
 40
1.0
 40
1.0
 40
1.0
 40
2.0
 40
2.0
 40
2.0
 40
3.0
 40
3.0
 40
3.0
 40
4.0
 40
4.0
 40
4.0
 40
5.0
 40
5.0
 40
5.0
 40
6.0
 40
6.0
 40
6.0
 40
7.0
 40
7.0
 40
7.0
 40
8.0
 40
8.0
 40
8.0
 40
8.0
 10
194.3269402137934
 20
175.3597822524474
 30
0.0
 10
194.4265035389985
 20
173.9452251130283
 30
0.0
 10
191.1240328282164
 20
174.0956036301634
 30
0.0
 10
191.1240328282164
 20
176.5857202896181
 30
0.0
 10
191.1240328282164
 20
179.0760092039607
 30
0.0
 10
199.1066688431894
 20
179.5466095576982
 30
0.0
 10
199.1066688431894
 20
172.5687363038347
 30
0.0
 10
199.1066688431894
 20
165.5901740304196
 30
0.0
 10
194.9577376132762
 20
162.9117827784923
 30
0.0
 10
194.9577376132762
 20
158.9132300657141
 30
0.0
 10
194.9577376132762
 20
154.9146773529359
 30
0.0
 10
196.0446659559131
 20
152.5006973539321
 30
0.0
 10
199.8036121196251
 20
152.5006973539321
 30
0.0
 10
197.961518348443
 20
153.6418859862569
 30
0.0
 10
196.3519686759232
 20
154.9146773529359
 30
0.0
 10
196.3519686759232
 20
158.9132300657141
 30
0.0
 10
196.3519686759232
 20
162.9117827784923
 30
0.0
 10
200.5008999058365
 20
165.5901740304196
 30
0.0
 10
200.5008999058365
 20
172.5687363038347
 30
0.0
 10
200.5008999058365
 20
179.5466095576982
 30
0.0
 10
189.7459937250317
 20
181.2819052983835
 30
0.0
 10
189.7459937250317
 20
177.0950779931327
 30
0.0
 10
189.7459937250317
 20
172.908078432994
 30
0.0
 10
194.8581742880711
 20
172.3420488713608
 30
0.0
 10
194.3269402137934
 20
175.3597822524474
 30
0.0
  0
ENDBLK
  5
10A
330
107
100
AcDbEntity
  8
0
100
AcDbBlockEnd
  0
BLOCK
  5
10F
330
10D
100
AcDbEntity
  8
0
100
AcDbBlockBegin
  2
block 17
 70
     0
 71
     0
 10
0.0
 20
0.0
 30
0.0
  3
block 17
  1

  0
SPLINE
  5
111
330
10D
100
AcDbEntity
  8
Ebene 2
 62
   250
420
  2301728
370
     5
100
AcDbSpline
210
0.0
220
0.0
230
1.0
 70
    11
 71
     3
 72
    29
 73
    25
 74
     0
 42
0.0000000001
 43
0.0000000001
 40
0.0
 40
0.0
 40
0.0
 40
0.0
 40
1.0
 40
1.0
 40
1.0
 40
2.0
 40
2.0
 40
2.0
 40
3.0
 40
3.0
 40
3.0
 40
4.0
 40
4.0
 40
4.0
 40
5.0
 40
5.0
 40
5.0
 40
6.0
 40
6.0
 40
6.0
 40
7.0
 40
7.0
 40
7.0
 40
8.0
 40
8.0
 40
8.0
 40
8.0
 10
110.6744544940708
 20
175.3597822524474
 30
0.0
 10
110.5752356786415
 20
173.9452251130283
 30
0.0
 10
113.8780508991994
 20
174.0956036301634
 30
0.0
 10
113.8780508991994
 20
176.5857202896181
 30
0.0
 10
113.8780508991994
 20
179.0760092039607
 30
0.0
 10
105.8947258646748
 20
179.5466095576982
 30
0.0
 10
105.8947258646748
 20
172.5687363038347
 30
0.0
 10
105.8947258646748
 20
165.5901740304196
 30
0.0
 10
110.0440016043638
 20
162.9117827784923
 30
0.0
 10
110.0440016043638
 20
158.9132300657141
 30
0.0
 10
110.0440016043638
 20
154.9146773529359
 30
0.0
 10
108.9567287519511
 20
152.5006973539321
 30
0.0
 10
105.1977825882391
 20
152.5006973539321
 30
0.0
 10
107.0395318496455
 20
153.6418859862569
 30
0.0
 10
108.6497705417167
 20
154.9146773529359
 30
0.0
 10
108.6497705417167
 20
158.9132300657141
 30
0.0
 10
108.6497705417167
 20
162.9117827784923
 30
0.0
 10
104.5004948020277
 20
165.5901740304196
 30
0.0
 10
104.5004948020277
 20
172.5687363038347
 30
0.0
 10
104.5004948020277
 20
179.5466095576982
 30
0.0
 10
115.2554009828325
 20
181.2819052983835
 30
0.0
 10
115.2554009828325
 20
177.0950779931327
 30
0.0
 10
115.2554009828325
 20
172.908078432994
 30
0.0
 10
110.1439094393447
 20
172.3420488713608
 30
0.0
 10
110.6744544940708
 20
175.3597822524474
 30
0.0
  0
SPLINE
  5
112
330
10D
100
AcDbEntity
  8
Ebene 2
 62
   250
420
  2301728
370
     5
100
AcDbSpline
210
0.0
220
0.0
230
1.0
 70
    11
 71
     3
 72
    29
 73
    25
 74
     0
 42
0.0000000001
 43
0.0000000001
 40
0.0
 40
0.0
 40
0.0
 40
0.0
 40
1.0
 40
1.0
 40
1.0
 40
2.0
 40
2.0
 40
2.0
 40
3.0
 40
3.0
 40
3.0
 40
4.0
 40
4.0
 40
4.0
 40
5.0
 40
5.0
 40
5.0
 40
6.0
 40
6.0
 40
6.0
 40
7.0
 40
7.0
 40
7.0
 40
8.0
 40
8.0
 40
8.0
 40
8.0
 10
110.6744544940708
 20
129.6417847103047
 30
0.0
 10
110.5752356786415
 20
131.0563418497238
 30
0.0
 10
113.8780508991994
 20
130.9061355874767
 30
0.0
 10
113.8780508991994
 20
128.4156744182461
 30
0.0
 10
113.8780508991994
 20
125.9259022685672
 30
0.0
 10
105.8947258646748
 20
125.4549574050539
 30
0.0
 10
105.8947258646748
 20
132.4333474235811
 30
0.0
 10
105.8947258646748
 20
139.4120819518841
 30
0.0
 10
110.0440016043638
 20
142.0899564391477
 30
0.0
 10
110.0440016043638
 20
146.088336897038
 30
0.0
 10
110.0440016043638
 20
150.0867173549283
 30
0.0
 10
108.9567287519511
 20
152.5006973539321
 30
0.0
 10
105.1977825882391
 20
152.5006973539321
 30
0.0
 10
107.0395318496455
 20
151.3593364667194
 30
0.0
 10
108.6497705417167
 20
150.0867173549283
 30
0.0
 10
108.6497705417167
 20
146.088336897038
 30
0.0
 10
108.6497705417167
 20
142.0899564391477
 30
0.0
 10
104.5004948020277
 20
139.4120819518841
 30
0.0
 10
104.5004948020277
 20
132.4333474235811
 30
0.0
 10
104.5004948020277
 20
125.4549574050539
 30
0.0
 10
115.2554009828325
 20
123.7193171545928
 30
0.0
 10
115.2554009828325
 20
127.9064889696194
 30
0.0
 10
115.2554009828325
 20
132.0933162748702
 30
0.0
 10
110.1439094393447
 20
132.6593458365033
 30
0.0
 10
110.6744544940708
 20
129.6417847103047
 30
0.0
  0
ENDBLK
  5
110
330
10D
100
AcDbEntity
  8
0
100
AcDbBlockEnd
  0
ENDSEC
  0
SECTION
  2
ENTITIES
  0
INSERT
  5
3D
330
1F
100
AcDbEntity
  8
Ebene 9
100
AcDbBlockReference
  2
block 2
 10
0.0
 20
0.0
 30
0.0
  0
SPLINE
  5
61
330
1F
100
AcDbEntity
  8
Ebene 4
370
     0
100
AcDbSpline
210
0.0
220
0.0
230
1.0
 70
    11
 71
     3
 72
    29
 73
    25
 74
     0
 42
0.0000000001
 43
0.0000000001
 40
0.0
 40
0.0
 40
0.0
 40
0.0
 40
1.0
 40
1.0
 40
1.0
 40
2.0
 40
2.0
 40
2.0
 40
3.0
 40
3.0
 40
3.0
 40
4.0
 40
4.0
 40
4.0
 40
5.0
 40
5.0
 40
5.0
 40
6.0
 40
6.0
 40
6.0
 40
7.0
 40
7.0
 40
7.0
 40
8.0
 40
8.0
 40
8.0
 40
8.0
 10
203.300730853732
 20
117.4006633567152
 30
0.0
 10
203.300730853732
 20
115.7439158449115
 30
0.0
 10
201.9574872379027
 20
114.4006722290822
 30
0.0
 10
200.3003952163232
 20
114.4006722290822
 30
0.0
 10
200.3003952163232
 20
114.4006722290822
 30
0.0
 10
104.7006549817653
 20
114.4006722290822
 30
0.0
 10
104.7006549817653
 20
114.4006722290822
 30
0.0
 10
103.0435629601857
 20
114.4006722290822
 30
0.0
 10
101.7006638541322
 20
115.7439158449115
 30
0.0
 10
101.7006638541322
 20
117.4006633567152
 30
0.0
 10
101.7006638541322
 20
117.4006633567152
 30
0.0
 10
101.7006638541322
 20
187.600731351149
 30
0.0
 10
101.7006638541322
 20
187.600731351149
 30
0.0
 10
101.7006638541322
 20
189.2576511178407
 30
0.0
 10
103.0435629601857
 20
190.600722478782
 30
0.0
 10
104.7006549817653
 20
190.600722478782
 30
0.0
 10
104.7006549817653
 20
190.600722478782
 30
0.0
 10
200.3003952163232
 20
190.600722478782
 30
0.0
 10
200.3003952163232
 20
190.600722478782
 30
0.0
 10
201.9574872379027
 20
190.600722478782
 30
0.0
 10
203.300730853732
 20
189.2576511178407
 30
0.0
 10
203.300730853732
 20
187.600731351149
 30
0.0
 10
203.300730853732
 20
187.600731351149
 30
0.0
 10
203.300730853732
 20
117.4006633567152
 30
0.0
 10
203.300730853732
 20
117.4006633567152
 30
0.0
  0
HATCH
  5
62
330
1F
100
AcDbEntity
  8
Ebene 4
 62
   250
420
  2301728
100
AcDbHatch
 10
0.0
 20
0.0
 30
0.0
210
0.0
220
0.0
230
1.0
  2
SOLID
 70
     1
 71
     0
 91
        1
 92
        1
 93
        1
 72
     4
 94
        3
 73
     0
 74
     1
 95
       29
 96
       25
 40
0.0
 40
0.0
 40
0.0
 40
0.0
 40
1.0
 40
1.0
 40
1.0
 40
2.0
 40
2.0
 40
2.0
 40
3.0
 40
3.0
 40
3.0
 40
4.0
 40
4.0
 40
4.0
 40
5.0
 40
5.0
 40
5.0
 40
6.0
 40
6.0
 40
6.0
 40
7.0
 40
7.0
 40
7.0
 40
8.0
 40
8.0
 40
8.0
 40
8.0
 10
203.300730853732
 20
117.4006633567152
 10
203.300730853732
 20
115.7439158449115
 10
201.9574872379027
 20
114.4006722290822
 10
200.3003952163232
 20
114.4006722290822
 10
200.3003952163232
 20
114.4006722290822
 10
104.7006549817653
 20
114.4006722290822
 10
104.7006549817653
 20
114.4006722290822
 10
103.0435629601857
 20
114.4006722290822
 10
101.7006638541322
 20
115.7439158449115
 10
101.7006638541322
 20
117.4006633567152
 10
101.7006638541322
 20
117.4006633567152
 10
101.7006638541322
 20
187.600731351149
 10
101.7006638541322
 20
187.600731351149
 10
101.7006638541322
 20
189.2576511178407
 10
103.0435629601857
 20
190.600722478782
 10
104.7006549817653
 20
190.600722478782
 10
104.7006549817653
 20
190.600722478782
 10
200.3003952163232
 20
190.600722478782
 10
200.3003952163232
 20
190.600722478782
 10
201.9574872379027
 20
190.600722478782
 10
203.300730853732
 20
189.2576511178407
 10
203.300730853732
 20
187.600731351149
 10
203.300730853732
 20
187.600731351149
 10
203.300730853732
 20
117.4006633567152
 10
203.300730853732
 20
117.4006633567152
 97
        0
 75
     2
 76
     1
 98
        0
  0
INSERT
  5
65
330
1F
100
AcDbEntity
  8
Ebene 2
100
AcDbBlockReference
  2
block 3
 10
0.0
 20
0.0
 30
0.0
  0
ENDSEC
  0
SECTION
  2
OBJECTS
  0
DICTIONARY
  5
C
330
0
100
AcDbDictionary
281
     1
  3
ACAD_GROUP
350
D
  3
ACAD_LAYOUT
350
1A
  3
ACAD_MLINESTYLE
350
17
  3
ACAD_PLOTSETTINGS
350
19
  3
ACAD_PLOTSTYLENAME
350
E
  3
ACAD_TABLESTYLE
350
113
  3
ACAD_VISUALSTYLE
350
2A
  0
DICTIONARY
  5
D
102
{ACAD_REACTORS
330
C
102
}
330
C
100
AcDbDictionary
281
     1
  0
DICTIONARY
  5
1A
102
{ACAD_REACTORS
330
C
102
}
330
C
100
AcDbDictionary
281
     1
  3
Layout1
350
1E
  3
Layout2
350
26
  3
Model
350
22
  0
DICTIONARY
  5
17
102
{ACAD_REACTORS
330
C
102
}
330
C
100
AcDbDictionary
281
     1
  3
Standard
350
18
  0
DICTIONARY
  5
19
102
{ACAD_REACTORS
330
C
102
}
330
C
100
AcDbDictionary
281
     1
  0
ACDBDICTIONARYWDFLT
  5
E
102
{ACAD_REACTORS
330
C
102
}
330
C
100
AcDbDictionary
281
     1
  3
Normal
350
F
100
AcDbDictionaryWithDefault
340
F
  0
DICTIONARY
  5
113
102
{ACAD_REACTORS
330
C
102
}
330
C
100
AcDbDictionary
281
     1
  0
DICTIONARY
  5
2A
102
{ACAD_REACTORS
330
C
102
}
330
C
100
AcDbDictionary
281
     1
  3
2dWireframe
350
2F
  3
3D Hidden
350
31
  3
3dWireframe
350
30
  3
Basic
350
32
  3
Brighten
350
36
  3
ColorChange
350
3A
  3
Conceptual
350
34
  3
Dim
350
35
  3
Facepattern
350
39
  3
Flat
350
2B
  3
FlatWithEdges
350
2C
  3
Gouraud
350
2D
  3
GouraudWithEdges
350
2E
  3
Linepattern
350
38
  3
Realistic
350
33
  3
Thicken
350
37
  0
LAYOUT
  5
1E
102
{ACAD_REACTORS
330
1A
102
}
330
1A
100
AcDbPlotSettings
  1

  2
none_device
  4

  6

 40
0.0
 41
0.0
 42
0.0
 43
0.0
 44
0.0
 45
0.0
 46
0.0
 47
0.0
 48
0.0
 49
0.0
140
0.0
141
0.0
142
1.0
143
1.0
 70
   688
 72
     0
 73
     0
 74
     5
  7

 75
    16
 76
     0
 77
     2
 78
   300
147
1.0
148
0.0
149
0.0
100
AcDbLayout
  1
Layout1
 70
     1
 71
     1
 10
0.0
 20
0.0
 11
12.0
 21
9.0
 12
0.0
 22
0.0
 32
0.0
 14
1.000000000000000E+20
 24
1.000000000000000E+20
 34
1.000000000000000E+20
 15
-1.000000000000000E+20
 25
-1.000000000000000E+20
 35
-1.000000000000000E+20
146
0.0
 13
0.0
 23
0.0
 33
0.0
 16
1.0
 26
0.0
 36
0.0
 17
0.0
 27
1.0
 37
0.0
 76
     0
330
1B
  0
LAYOUT
  5
26
102
{ACAD_REACTORS
330
1A
102
}
330
1A
100
AcDbPlotSettings
  1

  2
none_device
  4

  6

 40
0.0
 41
0.0
 42
0.0
 43
0.0
 44
0.0
 45
0.0
 46
0.0
 47
0.0
 48
0.0
 49
0.0
140
0.0
141
0.0
142
1.0
143
1.0
 70
   688
 72
     0
 73
     0
 74
     5
  7

 75
    16
 76
     0
 77
     2
 78
   300
147
1.0
148
0.0
149
0.0
100
AcDbLayout
  1
Layout2
 70
     1
 71
     2
 10
0.0
 20
0.0
 11
0.0
 21
0.0
 12
0.0
 22
0.0
 32
0.0
 14
0.0
 24
0.0
 34
0.0
 15
0.0
 25
0.0
 35
0.0
146
0.0
 13
0.0
 23
0.0
 33
0.0
 16
1.0
 26
0.0
 36
0.0
 17
0.0
 27
1.0
 37
0.0
 76
     0
330
23
  0
LAYOUT
  5
22
102
{ACAD_REACTORS
330
1A
102
}
330
1A
100
AcDbPlotSettings
  1

  2
none_device
  4

  6

 40
0.0
 41
0.0
 42
0.0
 43
0.0
 44
0.0
 45
0.0
 46
0.0
 47
0.0
 48
0.0
 49
0.0
140
0.0
141
0.0
142
1.0
143
1.0
 70
  1712
 72
     0
 73
     0
 74
     0
  7

 75
     0
 76
     0
 77
     2
 78
   300
147
1.0
148
0.0
149
0.0
100
AcDbLayout
  1
Model
 70
     1
 71
     0
 10
0.0
 20
0.0
 11
12.0
 21
9.0
 12
0.0
 22
0.0
 32
0.0
 14
1.000000000000000E+20
 24
1.000000000000000E+20
 34
1.000000000000000E+20
 15
-1.000000000000000E+20
 25
-1.000000000000000E+20
 35
-1.000000000000000E+20
146
0.0
 13
0.0
 23
0.0
 33
0.0
 16
1.0
 26
0.0
 36
0.0
 17
0.0
 27
1.0
 37
0.0
 76
     0
330
1F
331
29
  0
MLINESTYLE
  5
18
102
{ACAD_REACTORS
330
17
102
}
330
17
100
AcDbMlineStyle
  2
Standard
 70
     0
  3

 62
   256
 51
90.0
 52
90.0
 71
     2
 49
0.5
 62
   256
  6
BYLAYER
 49
-0.5
 62
   256
  6
BYLAYER
  0
ACDBPLACEHOLDER
  5
F
102
{ACAD_REACTORS
330
E
102
}
330
E
  0
VISUALSTYLE
  5
2F
102
{ACAD_REACTORS
330
2A
102
}
330
2A
100
AcDbVisualStyle
  2
2dWireframe
 70
     4
 71
     0
 72
     2
 73
     0
 90
        0
 40
-0.6
 41
-30.0
 62
     5
 63
     7
421
 16777215
 74
     1
 91
        4
 64
     7
 65
   257
 75
     1
175
     1
 42
1.0
 92
        0
 66
   257
 43
1.0
 76
     1
 77
     6
 78
     2
 67
     7
 79
     5
170
     0
171
     0
290
     0
174
     0
 93
        1
 44
0.0
173
     0
291
     0
 45
0.0
1001
ACAD
1000
AcDbSavedByObjectVersion
1070
     0
  0
VISUALSTYLE
  5
31
102
{ACAD_REACTORS
330
2A
102
}
330
2A
100
AcDbVisualStyle
  2
3D Hidden
 70
     6
 71
     1
 72
     2
 73
     2
 90
        0
 40
-0.6
 41
-30.0
 62
     5
 63
     7
421
 16777215
 74
     2
 91
        2
 64
     7
 65
   257
 75
     2
175
     1
 42
40.0
 92
        0
 66
   257
 43
1.0
 76
     1
 77
     6
 78
     2
 67
     7
 79
     3
170
     0
171
     0
290
     0
174
     0
 93
        1
 44
0.0
173
     0
291
     0
 45
0.0
1001
ACAD
1000
AcDbSavedByObjectVersion
1070
     0
  0
VISUALSTYLE
  5
30
102
{ACAD_REACTORS
330
2A
102
}
330
2A
100
AcDbVisualStyle
  2
3dWireframe
 70
     5
 71
     0
 72
     2
 73
     0
 90
        0
 40
-0.6
 41
-30.0
 62
     5
 63
     7
421
 16777215
 74
     1
 91
        4
 64
     7
 65
   257
 75
     1
175
     1
 42
1.0
 92
        0
 66
   257
 43
1.0
 76
     1
 77
     6
 78
     2
 67
     7
 79
     5
170
     0
171
     0
290
     0
174
     0
 93
        1
 44
0.0
173
     0
291
     0
 45
0.0
1001
ACAD
1000
AcDbSavedByObjectVersion
1070
     0
  0
VISUALSTYLE
  5
32
102
{ACAD_REACTORS
330
2A
102
}
330
2A
100
AcDbVisualStyle
  2
Basic
 70
     7
 71
     1
 72
     0
 73
     1
 90
        0
 40
-0.6
 41
-30.0
 62
     5
 63
     7
421
 16777215
 74
     0
 91
        4
 64
     7
 65
   257
 75
     1
175
     1
 42
1.0
 92
        8
 66
     7
 43
1.0
 76
     1
 77
     6
 78
     2
 67
     7
 79
     5
170
     0
171
     0
290
     0
174
     0
 93
        1
 44
0.0
173
     0
291
     1
 45
0.0
1001
ACAD
1000
AcDbSavedByObjectVersion
1070
     0
  0
VISUALSTYLE
  5
36
102
{ACAD_REACTORS
330
2A
102
}
330
2A
100
AcDbVisualStyle
  2
Brighten
 70
    12
 71
     2
 72
     2
 73
     0
 90
        0
 40
-0.6
 41
-30.0
 62
     5
 63
     7
421
 16777215
 74
     1
 91
        4
 64
     7
 65
   257
 75
     1
175
     1
 42
1.0
 92
        8
 66
     7
 43
1.0
 76
     1
 77
     6
 78
     2
 67
     7
 79
     5
170
     0
171
     0
290
     0
174
     0
 93
        1
 44
50.0
173
     0
291
     1
 45
0.0
1001
ACAD
1000
AcDbSavedByObjectVersion
1070
     0
  0
VISUALSTYLE
  5
3A
102
{ACAD_REACTORS
330
2A
102
}
330
2A
100
AcDbVisualStyle
  2
ColorChange
 70
    16
 71
     2
 72
     2
 73
     3
 90
        0
 40
-0.6
 41
-30.0
 62
     5
 63
     8
421
  8421504
 74
     1
 91
        4
 64
     7
 65
   257
 75
     1
175
     1
 42
1.0
 92
        8
 66
     8
424
  8421504
 43
1.0
 76
     1
 77
     6
 78
     2
 67
     7
 79
     5
170
     0
171
     0
290
     0
174
     0
 93
        1
 44
0.0
173
     0
291
     1
 45
0.0
1001
ACAD
1000
AcDbSavedByObjectVersion
1070
     0
  0
VISUALSTYLE
  5
34
102
{ACAD_REACTORS
330
2A
102
}
330
2A
100
AcDbVisualStyle
  2
Conceptual
 70
     9
 71
     3
 72
     2
 73
     0
 90
        0
 40
-0.6
 41
-30.0
 62
     5
 63
     7
421
 16777215
 74
     2
 91
        2
 64
     7
 65
   257
 75
     1
175
     1
 42
40.0
 92
        8
 66
     7
 43
1.0
 76
     1
 77
     6
 78
     2
 67
     7
 79
     3
170
     0
171
     0
290
     0
174
     0
 93
        1
 44
0.0
173
     0
291
     0
 45
0.0
1001
ACAD
1000
AcDbSavedByObjectVersion
1070
     0
  0
VISUALSTYLE
  5
35
102
{ACAD_REACTORS
330
2A
102
}
330
2A
100
AcDbVisualStyle
  2
Dim
 70
    11
 71
     2
 72
     2
 73
     0
 90
        0
 40
-0.6
 41
-30.0
 62
     5
 63
     7
421
 16777215
 74
     1
 91
        4
 64
     7
 65
   257
 75
     1
175
     1
 42
1.0
 92
        8
 66
     7
 43
1.0
 76
     1
 77
     6
 78
     2
 67
     7
 79
     5
170
     0
171
     0
290
     0
174
     0
 93
        1
 44
-50.0
173
     0
291
     1
 45
0.0
1001
ACAD
1000
AcDbSavedByObjectVersion
1070
     0
  0
VISUALSTYLE
  5
39
102
{ACAD_REACTORS
330
2A
102
}
330
2A
100
AcDbVisualStyle
  2
Facepattern
 70
    15
 71
     2
 72
     2
 73
     0
 90
        0
 40
-0.6
 41
-30.0
 62
     5
 63
     7
421
 16777215
 74
     1
 91
        4
 64
     7
 65
   257
 75
     1
175
     1
 42
1.0
 92
        8
 66
     7
 43
1.0
 76
     1
 77
     6
 78
     2
 67
     7
 79
     5
170
     0
171
     0
290
     0
174
     0
 93
        1
 44
0.0
173
     0
291
     1
 45
0.0
1001
ACAD
1000
AcDbSavedByObjectVersion
1070
     0
  0
VISUALSTYLE
  5
2B
102
{ACAD_REACTORS
330
2A
102
}
330
2A
100
AcDbVisualStyle
  2
Flat
 70
     0
 71
     2
 72
     1
 73
     1
 90
        2
 40
-0.6
 41
30.0
 62
     5
 63
     7
421
 16777215
 74
     0
 91
        4
 64
     7
 65
   257
 75
     1
175
     1
 42
1.0
 92
        8
 66
     7
 43
1.0
 76
     1
 77
     6
 78
     2
 67
     7
 79
     5
170
     0
171
     0
290
     0
174
     0
 93
       13
 44
0.0
173
     0
291
     1
 45
0.0
1001
ACAD
1000
AcDbSavedByObjectVersion
1070
     0
  0
VISUALSTYLE
  5
2C
102
{ACAD_REACTORS
330
2A
102
}
330
2A
100
AcDbVisualStyle
  2
FlatWithEdges
 70
     1
 71
     2
 72
     1
 73
     1
 90
        2
 40
-0.6
 41
30.0
 62
     5
 63
     7
421
 16777215
 74
     1
 91
        4
 64
     7
 65
   257
 75
     1
175
     1
 42
1.0
 92
        0
 66
   257
 43
1.0
 76
     1
 77
     6
 78
     2
 67
     7
 79
     5
170
     0
171
     0
290
     0
174
     0
 93
       13
 44
0.0
173
     0
291
     1
 45
0.0
1001
ACAD
1000
AcDbSavedByObjectVersion
1070
     0
  0
VISUALSTYLE
  5
2D
102
{ACAD_REACTORS
330
2A
102
}
330
2A
100
AcDbVisualStyle
  2
Gouraud
 70
     2
 71
     2
 72
     2
 73
     1
 90
        2
 40
-0.6
 41
30.0
 62
     5
 63
     7
421
 16777215
 74
     0
 91
        4
 64
     7
 65
   257
 75
     1
175
     1
 42
1.0
 92
        0
 66
     7
 43
1.0
 76
     1
 77
     6
 78
     2
 67
     7
 79
     5
170
     0
171
     0
290
     0
174
     0
 93
       13
 44
0.0
173
     0
291
     1
 45
0.0
1001
ACAD
1000
AcDbSavedByObjectVersion
1070
     0
  0
VISUALSTYLE
  5
2E
102
{ACAD_REACTORS
330
2A
102
}
330
2A
100
AcDbVisualStyle
  2
GouraudWithEdges
 70
     3
 71
     2
 72
     2
 73
     1
 90
        2
 40
-0.6
 41
30.0
 62
     5
 63
     7
421
 16777215
 74
     1
 91
        4
 64
     7
 65
   257
 75
     1
175
     1
 42
1.0
 92
        0
 66
   257
 43
1.0
 76
     1
 77
     6
 78
     2
 67
     7
 79
     5
170
     0
171
     0
290
     0
174
     0
 93
       13
 44
0.0
173
     0
291
     1
 45
0.0
1001
ACAD
1000
AcDbSavedByObjectVersion
1070
     0
  0
VISUALSTYLE
  5
38
102
{ACAD_REACTORS
330
2A
102
}
330
2A
100
AcDbVisualStyle
  2
Linepattern
 70
    14
 71
     2
 72
     2
 73
     0
 90
        0
 40
-0.6
 41
-30.0
 62
     5
 63
     7
421
 16777215
 74
     1
 91
        4
 64
     7
 65
   257
 75
     7
175
     7
 42
1.0
 92
        8
 66
     7
 43
1.0
 76
     1
 77
     6
 78
     2
 67
     7
 79
     5
170
     0
171
     0
290
     0
174
     0
 93
        1
 44
0.0
173
     0
291
     1
 45
0.0
1001
ACAD
1000
AcDbSavedByObjectVersion
1070
     0
  0
VISUALSTYLE
  5
33
102
{ACAD_REACTORS
330
2A
102
}
330
2A
100
AcDbVisualStyle
  2
Realistic
 70
     8
 71
     2
 72
     2
 73
     0
 90
        0
 40
-0.6
 41
-30.0
 62
     5
 63
     7
421
 16777215
 74
     1
 91
        0
 64
     7
 65
   257
 75
     1
175
     1
 42
1.0
 92
        8
 66
     8
424
  7895160
 43
1.0
 76
     1
 77
     6
 78
     2
 67
     7
 79
     5
170
     0
171
     0
290
     0
174
     0
 93
       13
 44
0.0
173
     0
291
     0
 45
0.0
1001
ACAD
1000
AcDbSavedByObjectVersion
1070
     0
  0
VISUALSTYLE
  5
37
102
{ACAD_REACTORS
330
2A
102
}
330
2A
100
AcDbVisualStyle
  2
Thicken
 70
    13
 71
     2
 72
     2
 73
     0
 90
        0
 40
-0.6
 41
-30.0
 62
     5
 63
     7
421
 16777215
 74
     1
 91
        4
 64
     7
 65
   257
 75
     1
175
     1
 42
1.0
 92
       12
 66
     7
 43
1.0
 76
     1
 77
     6
 78
     2
 67
     7
 79
     5
170
     0
171
     0
290
     0
174
     0
 93
        1
 44
0.0
173
     0
291
     1
 45
0.0
1001
ACAD
1000
AcDbSavedByObjectVersion
1070
     0
  0
ENDSEC
  0
EOF
